  0
SECTION
  2
HEADER
  9
$ACADVER
  1
AC1018
  9
$ACADMAINTVER
 70
     0
  9
$DWGCODEPAGE
  3
ANSI_1252
  9
$INSBASE
 10
0.0
 20
0.0
 30
0.0
  9
$EXTMIN
 10
-0.5
 20
-0.5
 30
-0.5
  9
$EXTMAX
 10
5.0
 20
5.0
 30
5.0
  9
$LIMMIN
 10
-0.5
 20
-0.5
  9
$LIMMAX
 10
5.0
 20
5.0
  9
$ORTHOMODE
 70
     0
  9
$REGENMODE
 70
     1
  9
$FILLMODE
 70
     1
  9
$QTEXTMODE
 70
     0
  9
$MIRRTEXT
 70
     1
  9
$LTSCALE
 40
1.0
  9
$ATTMODE
 70
     1
  9
$TEXTSIZE
 40
0.2
  9
$TRACEWID
 40
0.05
  9
$TEXTSTYLE
  7
Standard
  9
$CLAYER
  8
0
  9
$CELTYPE
  6
ByLayer
  9
$CECOLOR
 62
   256
  9
$CELTSCALE
 40
1.0
  9
$DISPSILH
 70
     0
  9
$DIMSCALE
 40
1.0
  9
$DIMASZ
 40
0.18
  9
$DIMEXO
 40
0.0625
  9
$DIMDLI
 40
0.38
  9
$DIMRND
 40
0.0
  9
$DIMDLE
 40
0.0
  9
$DIMEXE
 40
0.18
  9
$DIMTP
 40
0.0
  9
$DIMTM
 40
0.0
  9
$DIMTXT
 40
0.18
  9
$DIMCEN
 40
0.09
  9
$DIMTSZ
 40
0.0
  9
$DIMTOL
 70
     0
  9
$DIMLIM
 70
     0
  9
$DIMTIH
 70
     1
  9
$DIMTOH
 70
     1
  9
$DIMSE1
 70
     0
  9
$DIMSE2
 70
     0
  9
$DIMTAD
 70
     0
  9
$DIMZIN
 70
     0
  9
$DIMBLK
  1

  9
$DIMASO
 70
     1
  9
$DIMSHO
 70
     1
  9
$DIMPOST
  1

  9
$DIMAPOST
  1

  9
$DIMALT
 70
     0
  9
$DIMALTD
 70
     2
  9
$DIMALTF
 40
25.4
  9
$DIMLFAC
 40
1.0
  9
$DIMTOFL
 70
     0
  9
$DIMTVP
 40
0.0
  9
$DIMTIX
 70
     0
  9
$DIMSOXD
 70
     0
  9
$DIMSAH
 70
     0
  9
$DIMBLK1
  1

  9
$DIMBLK2
  1

  9
$DIMSTYLE
  2
Standard
  9
$DIMCLRD
 70
     0
  9
$DIMCLRE
 70
     0
  9
$DIMCLRT
 70
     0
  9
$DIMTFAC
 40
1.0
  9
$DIMGAP
 40
0.09
  9
$DIMJUST
 70
     0
  9
$DIMSD1
 70
     0
  9
$DIMSD2
 70
     0
  9
$DIMTOLJ
 70
     1
  9
$DIMTZIN
 70
     0
  9
$DIMALTZ
 70
     0
  9
$DIMALTTZ
 70
     0
  9
$DIMUPT
 70
     0
  9
$DIMDEC
 70
     4
  9
$DIMTDEC
 70
     4
  9
$DIMALTU
 70
     2
  9
$DIMALTTD
 70
     2
  9
$DIMTXSTY
  7
Standard
  9
$DIMAUNIT
 70
     0
  9
$DIMADEC
 70
     0
  9
$DIMALTRND
 40
0.0
  9
$DIMAZIN
 70
     0
  9
$DIMDSEP
 70
    46
  9
$DIMATFIT
 70
     3
  9
$DIMFRAC
 70
     0
  9
$DIMLDRBLK
  1

  9
$DIMLUNIT
 70
     2
  9
$DIMLWD
 70
    -2
  9
$DIMLWE
 70
    -2
  9
$DIMTMOVE
 70
     0
  9
$LUNITS
 70
     2
  9
$LUPREC
 70
     4
  9
$SKETCHINC
 40
0.1
  9
$FILLETRAD
 40
0.5
  9
$AUNITS
 70
     0
  9
$AUPREC
 70
     0
  9
$MENU
  1
.
  9
$ELEVATION
 40
0.0
  9
$PELEVATION
 40
0.0
  9
$THICKNESS
 40
0.0
  9
$LIMCHECK
 70
     0
  9
$CHAMFERA
 40
0.0
  9
$CHAMFERB
 40
0.0
  9
$CHAMFERC
 40
0.0
  9
$CHAMFERD
 40
0.0
  9
$SKPOLY
 70
     0
  9
$TDCREATE
 40
2460054.5910075
  9
$TDUCREATE
 40
2460054.507674166
  9
$TDUPDATE
 40
2460054.591007963
  9
$TDUUPDATE
 40
2460054.50767463
  9
$TDINDWG
 40
0.0000000116
  9
$TDUSRTIMER
 40
0.0000000116
  9
$USRTIMER
 70
     1
  9
$ANGBASE
 50
0.0
  9
$ANGDIR
 70
     0
  9
$PDMODE
 70
     0
  9
$PDSIZE
 40
0.0
  9
$PLINEWID
 40
0.0
  9
$SPLFRAME
 70
     0
  9
$SPLINETYPE
 70
     6
  9
$SPLINESEGS
 70
     8
  9
$HANDSEED
  5
1F2
  9
$SURFTAB1
 70
     6
  9
$SURFTAB2
 70
     6
  9
$SURFTYPE
 70
     6
  9
$SURFU
 70
     6
  9
$SURFV
 70
     6
  9
$UCSBASE
  2

  9
$UCSNAME
  2

  9
$UCSORG
 10
0.0
 20
0.0
 30
0.0
  9
$UCSXDIR
 10
1.0
 20
0.0
 30
0.0
  9
$UCSYDIR
 10
0.0
 20
1.0
 30
0.0
  9
$UCSORTHOREF
  2

  9
$UCSORTHOVIEW
 70
     0
  9
$UCSORGTOP
 10
0.0
 20
0.0
 30
0.0
  9
$UCSORGBOTTOM
 10
0.0
 20
0.0
 30
0.0
  9
$UCSORGLEFT
 10
0.0
 20
0.0
 30
0.0
  9
$UCSORGRIGHT
 10
0.0
 20
0.0
 30
0.0
  9
$UCSORGFRONT
 10
0.0
 20
0.0
 30
0.0
  9
$UCSORGBACK
 10
0.0
 20
0.0
 30
0.0
  9
$PUCSBASE
  2

  9
$PUCSNAME
  2

  9
$PUCSORG
 10
0.0
 20
0.0
 30
0.0
  9
$PUCSXDIR
 10
1.0
 20
0.0
 30
0.0
  9
$PUCSYDIR
 10
0.0
 20
1.0
 30
0.0
  9
$PUCSORTHOREF
  2

  9
$PUCSORTHOVIEW
 70
     0
  9
$PUCSORGTOP
 10
0.0
 20
0.0
 30
0.0
  9
$PUCSORGBOTTOM
 10
0.0
 20
0.0
 30
0.0
  9
$PUCSORGLEFT
 10
0.0
 20
0.0
 30
0.0
  9
$PUCSORGRIGHT
 10
0.0
 20
0.0
 30
0.0
  9
$PUCSORGFRONT
 10
0.0
 20
0.0
 30
0.0
  9
$PUCSORGBACK
 10
0.0
 20
0.0
 30
0.0
  9
$USERI1
 70
     0
  9
$USERI2
 70
     0
  9
$USERI3
 70
     0
  9
$USERI4
 70
     0
  9
$USERI5
 70
     0
  9
$USERR1
 40
0.0
  9
$USERR2
 40
0.0
  9
$USERR3
 40
0.0
  9
$USERR4
 40
0.0
  9
$USERR5
 40
0.0
  9
$WORLDVIEW
 70
     1
  9
$SHADEDGE
 70
     3
  9
$SHADEDIF
 70
    70
  9
$TILEMODE
 70
     1
  9
$MAXACTVP
 70
    64
  9
$PINSBASE
 10
0.0
 20
0.0
 30
0.0
  9
$PLIMCHECK
 70
     0
  9
$PEXTMIN
 10
-0.5
 20
-0.5
 30
-0.5
  9
$PEXTMAX
 10
5.0
 20
5.0
 30
5.0
  9
$PLIMMIN
 10
-0.5
 20
-0.5
  9
$PLIMMAX
 10
5.0
 20
5.0
  9
$UNITMODE
 70
     0
  9
$VISRETAIN
 70
     1
  9
$PLINEGEN
 70
     0
  9
$PSLTSCALE
 70
     1
  9
$TREEDEPTH
 70
  3020
  9
$CMLSTYLE
  2
Standard
  9
$CMLJUST
 70
     0
  9
$CMLSCALE
 40
1.0
  9
$PROXYGRAPHICS
 70
     1
  9
$MEASUREMENT
 70
     1
  9
$CELWEIGHT
370
    18
  9
$ENDCAPS
280
     0
  9
$JOINSTYLE
280
     0
  9
$LWDISPLAY
290
     1
  9
$INSUNITS
 70
     4
  9
$HYPERLINKBASE
  1

  9
$STYLESHEET
  1

  9
$XEDIT
290
     1
  9
$CEPSNTYPE
380
     0
  9
$PSTYLEMODE
290
     1
  9
$FINGERPRINTGUID
  2
{436D0DB9-E245-4EEE-A1E2-F7A6283E5F2F}
  9
$VERSIONGUID
  2
{FAEB1C32-E019-11D5-929B-00C0DF256EC4}
  9
$EXTNAMES
290
     1
  9
$PSVPSCALE
 40
0.0
  9
$OLESTARTUP
290
     0
  9
$SORTENTS
280
   127
  9
$INDEXCTL
280
     0
  9
$HIDETEXT
280
     1
  9
$XCLIPFRAME
290
     0
  9
$HALOGAP
280
     0
  9
$OBSCOLOR
 70
   257
  9
$OBSLTYPE
280
     0
  9
$INTERSECTIONDISPLAY
280
     0
  9
$INTERSECTIONCOLOR
 70
   257
  9
$DIMASSOC
280
     2
  9
$PROJECTNAME
  1

  0
ENDSEC
  0
SECTION
  2
CLASSES
  0
CLASS
  1
ACDBDICTIONARYWDFLT
  2
AcDbDictionaryWithDefault
  3
ObjectDBX Classes
 90
        0
 91
        3
280
     0
281
     0
  0
CLASS
  1
VISUALSTYLE
  2
AcDbVisualStyle
  3
ObjectDBX Classes
 90
     4095
 91
        3
280
     0
281
     0
  0
CLASS
  1
MATERIAL
  2
AcDbMaterial
  3
ObjectDBX Classes
 90
     1153
 91
        3
280
     0
281
     0
  0
CLASS
  1
SCALE
  2
AcDbScale
  3
ObjectDBX Classes
 90
     1153
 91
        3
280
     0
281
     0
  0
CLASS
  1
TABLESTYLE
  2
AcDbTableStyle
  3
ObjectDBX Classes
 90
     4095
 91
        3
280
     0
281
     0
  0
CLASS
  1
MLEADERSTYLE
  2
AcDbMLeaderStyle
  3
ACDB_MLEADERSTYLE_CLASS
 90
     4095
 91
        3
280
     0
281
     0
  0
CLASS
  1
SUN
  2
AcDbSun
  3
SCENEOE
 90
     1153
 91
        3
280
     0
281
     0
  0
CLASS
  1
DICTIONARYVAR
  2
AcDbDictionaryVar
  3
ObjectDBX Classes
 90
        0
 91
        3
280
     0
281
     0
  0
CLASS
  1
CELLSTYLEMAP
  2
AcDbCellStyleMap
  3
ObjectDBX Classes
 90
     1152
 91
        3
280
     0
281
     0
  0
ENDSEC
  0
SECTION
  2
TABLES
  0
TABLE
  2
VPORT
  5
8
102
{ACAD_XDICTIONARY
360
1AB
102
}
330
0
100
AcDbSymbolTable
 70
    16
  0
VPORT
  5
29
330
8
100
AcDbSymbolTableRecord
100
AcDbViewportTableRecord
  2
*Active
 70
     0
 10
0.0
 20
0.0
 11
1.0
 21
1.0
 12
589.355903
 22
458.128853
 13
0.0
 23
0.0
 14
0.5
 24
0.5
 15
0.5
 25
0.5
 16
0.0
 26
0.0
 36
1.0
 17
0.0
 27
0.0
 37
0.0
 40
254.0
 41
0.069908
 42
50.0
 43
1445.301036
 44
-1445.301036
 50
0.0
 51
0.0
 71
     0
 72
   100
 73
     1
 74
     3
 75
     0
 76
     0
 77
     0
 78
     0
281
     0
 65
     1
110
0.0
120
0.0
130
0.0
111
1.0
121
0.0
131
0.0
112
0.0
122
1.0
132
0.0
 79
     0
146
0.0
  0
VPORT
  5
19C
330
8
100
AcDbSymbolTableRecord
100
AcDbViewportTableRecord
  2
L1
 70
     0
 10
0.0
 20
0.0
 11
1.0
 21
1.0
 12
589.355903
 22
458.128853
 13
0.0
 23
0.0
 14
0.5
 24
0.5
 15
0.5
 25
0.5
 16
0.0
 26
0.0
 36
1.0
 17
0.0
 27
0.0
 37
0.0
 40
254.0
 41
0.069908
 42
50.0
 43
1445.301036
 44
-1445.301036
 50
0.0
 51
0.0
 71
     0
 72
   100
 73
     1
 74
     3
 75
     0
 76
     0
 77
     0
 78
     0
281
     0
 65
     1
110
0.0
120
0.0
130
0.0
111
1.0
121
0.0
131
0.0
112
0.0
122
1.0
132
0.0
 79
     0
146
0.0
  0
VPORT
  5
19D
330
8
100
AcDbSymbolTableRecord
100
AcDbViewportTableRecord
  2
L2
 70
     0
 10
0.0
 20
0.0
 11
0.5
 21
1.0
 12
0.0
 22
0.0
 13
0.0
 23
0.0
 14
0.5
 24
0.5
 15
0.5
 25
0.5
 16
0.0
 26
-1.0
 36
0.0
 17
0.0
 27
0.0
 37
0.0
 40
1554.140024
 41
0.011425
 42
50.0
 43
799.170128
 44
-799.170128
 50
0.0
 51
0.0
 71
     0
 72
   100
 73
     1
 74
     3
 75
     0
 76
     0
 77
     0
 78
     0
281
     0
 65
     1
110
0.0
120
0.0
130
0.0
111
1.0
121
0.0
131
0.0
112
0.0
122
1.0
132
0.0
 79
     0
146
0.0
  0
VPORT
  5
19E
330
8
100
AcDbSymbolTableRecord
100
AcDbViewportTableRecord
  2
L2
 70
     0
 10
0.5
 20
0.0
 11
1.0
 21
1.0
 12
0.0
 22
0.0
 13
0.0
 23
0.0
 14
0.5
 24
0.5
 15
0.5
 25
0.5
 16
1.0
 26
0.0
 36
0.0
 17
0.0
 27
0.0
 37
0.0
 40
1554.140024
 41
0.011425
 42
50.0
 43
787.379708
 44
-787.379708
 50
0.0
 51
0.0
 71
     0
 72
   100
 73
     1
 74
     3
 75
     0
 76
     0
 77
     0
 78
     0
281
     0
 65
     1
110
0.0
120
0.0
130
0.0
111
1.0
121
0.0
131
0.0
112
0.0
122
1.0
132
0.0
 79
     0
146
0.0
  0
VPORT
  5
19F
330
8
100
AcDbSymbolTableRecord
100
AcDbViewportTableRecord
  2
L3
 70
     0
 10
0.0
 20
0.5
 11
1.0
 21
1.0
 12
589.355903
 22
458.128853
 13
0.0
 23
0.0
 14
0.5
 24
0.5
 15
0.5
 25
0.5
 16
0.0
 26
0.0
 36
1.0
 17
0.0
 27
0.0
 37
0.0
 40
254.0
 41
0.069908
 42
50.0
 43
1445.301036
 44
-1445.301036
 50
0.0
 51
0.0
 71
     0
 72
   100
 73
     1
 74
     3
 75
     0
 76
     0
 77
     0
 78
     0
281
     0
 65
     1
110
0.0
120
0.0
130
0.0
111
1.0
121
0.0
131
0.0
112
0.0
122
1.0
132
0.0
 79
     0
146
0.0
  0
VPORT
  5
1A0
330
8
100
AcDbSymbolTableRecord
100
AcDbViewportTableRecord
  2
L3
 70
     0
 10
0.0
 20
0.0
 11
1.0
 21
0.5
 12
0.0
 22
0.0
 13
0.0
 23
0.0
 14
0.5
 24
0.5
 15
0.5
 25
0.5
 16
0.0
 26
-1.0
 36
0.0
 17
0.0
 27
0.0
 37
0.0
 40
1554.140024
 41
0.011425
 42
50.0
 43
799.170128
 44
-799.170128
 50
0.0
 51
0.0
 71
     0
 72
   100
 73
     1
 74
     3
 75
     0
 76
     0
 77
     0
 78
     0
281
     0
 65
     1
110
0.0
120
0.0
130
0.0
111
1.0
121
0.0
131
0.0
112
0.0
122
1.0
132
0.0
 79
     0
146
0.0
  0
VPORT
  5
1A1
330
8
100
AcDbSymbolTableRecord
100
AcDbViewportTableRecord
  2
L4
 70
     0
 10
0.0
 20
0.5
 11
0.5
 21
1.0
 12
589.355903
 22
458.128853
 13
0.0
 23
0.0
 14
0.5
 24
0.5
 15
0.5
 25
0.5
 16
0.0
 26
0.0
 36
1.0
 17
0.0
 27
0.0
 37
0.0
 40
254.0
 41
0.069908
 42
50.0
 43
1445.301036
 44
-1445.301036
 50
0.0
 51
0.0
 71
     0
 72
   100
 73
     1
 74
     3
 75
     0
 76
     0
 77
     0
 78
     0
281
     0
 65
     1
110
0.0
120
0.0
130
0.0
111
1.0
121
0.0
131
0.0
112
0.0
122
1.0
132
0.0
 79
     0
146
0.0
  0
VPORT
  5
1A2
330
8
100
AcDbSymbolTableRecord
100
AcDbViewportTableRecord
  2
L4
 70
     0
 10
0.0
 20
0.0
 11
0.5
 21
0.5
 12
0.0
 22
0.0
 13
0.0
 23
0.0
 14
0.5
 24
0.5
 15
0.5
 25
0.5
 16
0.0
 26
-1.0
 36
0.0
 17
0.0
 27
0.0
 37
0.0
 40
1554.140024
 41
0.011425
 42
50.0
 43
799.170128
 44
-799.170128
 50
0.0
 51
0.0
 71
     0
 72
   100
 73
     1
 74
     3
 75
     0
 76
     0
 77
     0
 78
     0
281
     0
 65
     1
110
0.0
120
0.0
130
0.0
111
1.0
121
0.0
131
0.0
112
0.0
122
1.0
132
0.0
 79
     0
146
0.0
  0
VPORT
  5
1A3
330
8
100
AcDbSymbolTableRecord
100
AcDbViewportTableRecord
  2
L4
 70
     0
 10
0.5
 20
0.0
 11
1.0
 21
0.5
 12
0.0
 22
0.0
 13
0.0
 23
0.0
 14
0.5
 24
0.5
 15
0.5
 25
0.5
 16
1.0
 26
0.0
 36
0.0
 17
0.0
 27
0.0
 37
0.0
 40
1554.140024
 41
0.011425
 42
50.0
 43
787.379708
 44
-787.379708
 50
0.0
 51
0.0
 71
     0
 72
   100
 73
     1
 74
     3
 75
     0
 76
     0
 77
     0
 78
     0
281
     0
 65
     1
110
0.0
120
0.0
130
0.0
111
1.0
121
0.0
131
0.0
112
0.0
122
1.0
132
0.0
 79
     0
146
0.0
  0
VPORT
  5
1A4
330
8
100
AcDbSymbolTableRecord
100
AcDbViewportTableRecord
  2
L4
 70
     0
 10
0.5
 20
0.5
 11
1.0
 21
1.0
 12
0.0
 22
0.0
 13
0.0
 23
0.0
 14
0.5
 24
0.5
 15
0.5
 25
0.5
 16
0.5773502691896258
 26
-0.5773502691896258
 36
0.5773502691896258
 17
0.0
 27
0.0
 37
0.0
 40
1525.037316
 41
0.011643
 42
50.0
 43
794.116007
 44
-794.116007
 50
0.0
 51
0.0
 71
     0
 72
   100
 73
     1
 74
     3
 75
     0
 76
     0
 77
     0
 78
     0
281
     0
 65
     1
110
0.0
120
0.0
130
0.0
111
1.0
121
0.0
131
0.0
112
0.0
122
1.0
132
0.0
 79
     0
146
0.0
  0
VPORT
  5
1A5
330
8
100
AcDbSymbolTableRecord
100
AcDbViewportTableRecord
  2
L6
 70
     0
 10
0.0
 20
0.5
 11
0.333333
 21
1.0
 12
0.0
 22
0.0
 13
0.0
 23
0.0
 14
0.5
 24
0.5
 15
0.5
 25
0.5
 16
0.7188730927569433
 26
-0.5850486126764433
 36
0.3754192287502549
 17
0.0
 27
0.0
 37
0.0
 40
1609.344902
 41
0.011034
 42
50.0
 43
833.240238
 44
-833.240238
 50
0.0
 51
0.0
 71
     0
 72
   100
 73
     1
 74
     3
 75
     0
 76
     0
 77
     0
 78
     0
281
     0
 65
     1
110
0.0
120
0.0
130
0.0
111
1.0
121
0.0
131
0.0
112
0.0
122
1.0
132
0.0
 79
     0
146
0.0
  0
VPORT
  5
1A6
330
8
100
AcDbSymbolTableRecord
100
AcDbViewportTableRecord
  2
L6
 70
     0
 10
0.0
 20
0.0
 11
0.333333
 21
0.5
 12
0.0
 22
0.0
 13
0.0
 23
0.0
 14
0.5
 24
0.5
 15
0.5
 25
0.5
 16
-1.0
 26
0.0
 36
0.0
 17
0.0
 27
0.0
 37
0.0
 40
1554.140024
 41
0.011425
 42
50.0
 43
787.379708
 44
-787.379708
 50
0.0
 51
0.0
 71
     0
 72
   100
 73
     1
 74
     3
 75
     0
 76
     0
 77
     0
 78
     0
281
     0
 65
     1
110
0.0
120
0.0
130
0.0
111
1.0
121
0.0
131
0.0
112
0.0
122
1.0
132
0.0
 79
     0
146
0.0
  0
VPORT
  5
1A7
330
8
100
AcDbSymbolTableRecord
100
AcDbViewportTableRecord
  2
L6
 70
     0
 10
0.333333
 20
0.5
 11
0.666667
 21
1.0
 12
589.355903
 22
458.128853
 13
0.0
 23
0.0
 14
0.5
 24
0.5
 15
0.5
 25
0.5
 16
0.0
 26
0.0
 36
1.0
 17
0.0
 27
0.0
 37
0.0
 40
254.0
 41
0.069908
 42
50.0
 43
1445.301036
 44
-1445.301036
 50
0.0
 51
0.0
 71
     0
 72
   100
 73
     1
 74
     3
 75
     0
 76
     0
 77
     0
 78
     0
281
     0
 65
     1
110
0.0
120
0.0
130
0.0
111
1.0
121
0.0
131
0.0
112
0.0
122
1.0
132
0.0
 79
     0
146
0.0
  0
VPORT
  5
1A8
330
8
100
AcDbSymbolTableRecord
100
AcDbViewportTableRecord
  2
L6
 70
     0
 10
0.333333
 20
0.0
 11
0.666667
 21
0.5
 12
0.0
 22
0.0
 13
0.0
 23
0.0
 14
0.5
 24
0.5
 15
0.5
 25
0.5
 16
0.0
 26
-1.0
 36
0.0
 17
0.0
 27
0.0
 37
0.0
 40
1554.140024
 41
0.011425
 42
50.0
 43
799.170128
 44
-799.170128
 50
0.0
 51
0.0
 71
     0
 72
   100
 73
     1
 74
     3
 75
     0
 76
     0
 77
     0
 78
     0
281
     0
 65
     1
110
0.0
120
0.0
130
0.0
111
1.0
121
0.0
131
0.0
112
0.0
122
1.0
132
0.0
 79
     0
146
0.0
  0
VPORT
  5
1A9
330
8
100
AcDbSymbolTableRecord
100
AcDbViewportTableRecord
  2
L6
 70
     0
 10
0.666667
 20
0.5
 11
1.0
 21
1.0
 12
0.0
 22
0.0
 13
0.0
 23
0.0
 14
0.5
 24
0.5
 15
0.5
 25
0.5
 16
0.5773502691896258
 26
-0.5773502691896258
 36
0.5773502691896258
 17
0.0
 27
0.0
 37
0.0
 40
1525.037316
 41
0.011643
 42
50.0
 43
794.116007
 44
-794.116007
 50
0.0
 51
0.0
 71
     0
 72
   100
 73
     1
 74
     3
 75
     0
 76
     0
 77
     0
 78
     0
281
     0
 65
     1
110
0.0
120
0.0
130
0.0
111
1.0
121
0.0
131
0.0
112
0.0
122
1.0
132
0.0
 79
     0
146
0.0
  0
VPORT
  5
1AA
330
8
100
AcDbSymbolTableRecord
100
AcDbViewportTableRecord
  2
L6
 70
     0
 10
0.666667
 20
0.0
 11
1.0
 21
0.5
 12
0.0
 22
0.0
 13
0.0
 23
0.0
 14
0.5
 24
0.5
 15
0.5
 25
0.5
 16
1.0
 26
0.0
 36
0.0
 17
0.0
 27
0.0
 37
0.0
 40
1554.140024
 41
0.011425
 42
50.0
 43
787.379708
 44
-787.379708
 50
0.0
 51
0.0
 71
     0
 72
   100
 73
     1
 74
     3
 75
     0
 76
     0
 77
     0
 78
     0
281
     0
 65
     1
110
0.0
120
0.0
130
0.0
111
1.0
121
0.0
131
0.0
112
0.0
122
1.0
132
0.0
 79
     0
146
0.0
  0
ENDTAB
  0
TABLE
  2
LTYPE
  5
5
330
0
100
AcDbSymbolTable
 70
     6
  0
LTYPE
  5
14
330
5
100
AcDbSymbolTableRecord
100
AcDbLinetypeTableRecord
  2
ByBlock
 70
     0
  3

 72
    65
 73
     0
 40
0.0
  0
LTYPE
  5
15
330
5
100
AcDbSymbolTableRecord
100
AcDbLinetypeTableRecord
  2
ByLayer
 70
     0
  3

 72
    65
 73
     0
 40
0.0
  0
LTYPE
  5
16
330
5
100
AcDbSymbolTableRecord
100
AcDbLinetypeTableRecord
  2
Continuous
 70
     0
  3
Solid line
 72
    65
 73
     0
 40
0.0
  0
LTYPE
  5
6E
330
5
100
AcDbSymbolTableRecord
100
AcDbLinetypeTableRecord
  2
CENTER
 70
     0
  3
____ _ ____ _ ____ _ ____
 72
    65
 73
     4
 40
47.4
 49
22.0
 74
     4
 75
     0
340
0
 46
0.0
 50
0.0
 44
0.0
 45
0.0
 49
-8.5
 74
     4
 75
     0
340
0
 46
0.0
 50
0.0
 44
0.0
 45
0.0
 49
8.5
 74
     4
 75
     0
340
0
 46
0.0
 50
0.0
 44
0.0
 45
0.0
 49
-8.5
 74
     4
 75
     0
340
0
 46
0.0
 50
0.0
 44
0.0
 45
0.0
  0
LTYPE
  5
6F
330
5
100
AcDbSymbolTableRecord
100
AcDbLinetypeTableRecord
  2
DASHDOT
 70
     0
  3
_._._._._._._._._._._._._._._._.
 72
    65
 73
     4
 40
70.0
 49
31.0
 74
     4
 75
     0
340
0
 46
0.0
 50
0.0
 44
0.0
 45
0.0
 49
-13.0
 74
     4
 75
     0
340
0
 46
0.0
 50
0.0
 44
0.0
 45
0.0
 49
13.0
 74
     4
 75
     0
340
0
 46
0.0
 50
0.0
 44
0.0
 45
0.0
 49
-13.0
 74
     4
 75
     0
340
0
 46
0.0
 50
0.0
 44
0.0
 45
0.0
  0
LTYPE
  5
70
330
5
100
AcDbSymbolTableRecord
100
AcDbLinetypeTableRecord
  2
DASHED
 70
     0
  3
__ __ __ __ __ __ __ __ __
 72
    65
 73
     2
 40
25.72
 49
12.86
 74
     4
 75
     0
340
0
 46
0.0
 50
0.0
 44
0.0
 45
0.0
 49
-12.86
 74
     4
 75
     0
340
0
 46
0.0
 50
0.0
 44
0.0
 45
0.0
  0
LTYPE
  5
71
330
5
100
AcDbSymbolTableRecord
100
AcDbLinetypeTableRecord
  2
DOT
 70
     0
  3
.........................
 72
    65
 73
     2
 40
10.0
 49
0.0
 74
     4
 75
     0
340
0
 46
0.0
 50
0.0
 44
0.0
 45
0.0
 49
-10.0
 74
     4
 75
     0
340
0
 46
0.0
 50
0.0
 44
0.0
 45
0.0
  0
LTYPE
  5
72
330
5
100
AcDbSymbolTableRecord
100
AcDbLinetypeTableRecord
  2
PHANTOM
 70
     0
  3
____ _ _ ____ _ _ _____ _ _ ____
 72
    65
 73
     6
 40
50.5
 49
18.0
 74
     4
 75
     0
340
0
 46
0.0
 50
0.0
 44
0.0
 45
0.0
 49
-6.5
 74
     4
 75
     0
340
0
 46
0.0
 50
0.0
 44
0.0
 45
0.0
 49
6.5
 74
     4
 75
     0
340
0
 46
0.0
 50
0.0
 44
0.0
 45
0.0
 49
-6.5
 74
     4
 75
     0
340
0
 46
0.0
 50
0.0
 44
0.0
 45
0.0
 49
6.5
 74
     4
 75
     0
340
0
 46
0.0
 50
0.0
 44
0.0
 45
0.0
 49
-6.5
 74
     4
 75
     0
340
0
 46
0.0
 50
0.0
 44
0.0
 45
0.0
  0
ENDTAB
  0
TABLE
  2
LAYER
  5
2
330
0
100
AcDbSymbolTable
 70
     3
  0
LAYER
  5
10
330
2
100
AcDbSymbolTableRecord
100
AcDbLayerTableRecord
  2
0
 70
     0
 62
     7
  6
Continuous
370
    -3
390
F
  0
LAYER
  5
74
330
2
100
AcDbSymbolTableRecord
100
AcDbLayerTableRecord
  2
2
 70
     0
 62
     7
420
 16777215
  6
Continuous
370
    -3
390
F
  0
LAYER
  5
79
330
2
100
AcDbSymbolTableRecord
100
AcDbLayerTableRecord
  2
1
 70
     0
 62
     7
420
 16777215
  6
Continuous
370
    -3
390
F
  0
ENDTAB
  0
TABLE
  2
STYLE
  5
3
330
0
100
AcDbSymbolTable
 70
     1
  0
STYLE
  5
11
330
3
100
AcDbSymbolTableRecord
100
AcDbTextStyleTableRecord
  2
Standard
 70
     0
 40
0.0
 41
1.0
 50
0.0
 71
     0
 42
0.2
  3
txt
  4

  0
ENDTAB
  0
TABLE
  2
VIEW
  5
6
330
0
100
AcDbSymbolTable
 70
     0
  0
ENDTAB
  0
TABLE
  2
UCS
  5
7
330
0
100
AcDbSymbolTable
 70
     0
  0
ENDTAB
  0
TABLE
  2
APPID
  5
9
330
0
100
AcDbSymbolTable
 70
     2
  0
APPID
  5
12
330
9
100
AcDbSymbolTableRecord
100
AcDbRegAppTableRecord
  2
ACAD
 70
     0
  0
APPID
  5
1EA
330
9
100
AcDbSymbolTableRecord
100
AcDbRegAppTableRecord
  2
ACAD_MLEADERVER
 70
     0
  0
ENDTAB
  0
TABLE
  2
DIMSTYLE
  5
A
330
0
100
AcDbSymbolTable
 70
     1
100
AcDbDimStyleTable
  0
DIMSTYLE
105
27
330
A
100
AcDbSymbolTableRecord
100
AcDbDimStyleTableRecord
  2
Standard
 70
     0
178
     0
340
11
  0
ENDTAB
  0
TABLE
  2
BLOCK_RECORD
  5
1
330
0
100
AcDbSymbolTable
 70
     1
  0
BLOCK_RECORD
  5
1F
330
1
100
AcDbSymbolTableRecord
100
AcDbBlockTableRecord
  2
*Model_Space
340
22
  0
BLOCK_RECORD
  5
1B
330
1
100
AcDbSymbolTableRecord
100
AcDbBlockTableRecord
  2
*Paper_Space
340
1E
  0
BLOCK_RECORD
  5
23
330
1
100
AcDbSymbolTableRecord
100
AcDbBlockTableRecord
  2
*Paper_Space0
340
26
  0
ENDTAB
  0
ENDSEC
  0
SECTION
  2
BLOCKS
  0
BLOCK
  5
20
330
1F
100
AcDbEntity
  8
0
100
AcDbBlockBegin
  2
*Model_Space
 70
     0
 10
0.0
 20
0.0
 30
0.0
  3
*Model_Space
  1

  0
ENDBLK
  5
21
330
1F
100
AcDbEntity
  8
0
100
AcDbBlockEnd
  0
BLOCK
  5
1C
330
1B
100
AcDbEntity
 67
     1
  8
0
100
AcDbBlockBegin
  2
*Paper_Space
 70
     0
 10
0.0
 20
0.0
 30
0.0
  3
*Paper_Space
  1

  0
ENDBLK
  5
1D
330
1B
100
AcDbEntity
 67
     1
  8
0
100
AcDbBlockEnd
  0
BLOCK
  5
24
330
23
100
AcDbEntity
  8
0
100
AcDbBlockBegin
  2
*Paper_Space0
 70
     0
 10
0.0
 20
0.0
 30
0.0
  3
*Paper_Space0
  1

  0
ENDBLK
  5
25
330
23
100
AcDbEntity
  8
0
100
AcDbBlockEnd
  0
ENDSEC
  0
SECTION
  2
ENTITIES
  0
LINE
  5
73
330
1F
100
AcDbEntity
  8
2
  6
Continuous
 62
    30
370
    18
100
AcDbLine
 10
345.163895
 20
608.416741
 30
0.0
 11
345.163895
 21
678.416741
 31
0.0
  0
LINE
  5
75
330
1F
100
AcDbEntity
  8
2
  6
Continuous
 62
    30
370
    18
100
AcDbLine
 10
312.163895
 20
678.416741
 30
0.0
 11
312.163895
 21
608.416741
 31
0.0
  0
LINE
  5
76
330
1F
100
AcDbEntity
  8
2
  6
Continuous
 62
    30
370
    18
100
AcDbLine
 10
448.163895
 20
608.416741
 30
0.0
 11
448.163895
 21
678.416741
 31
0.0
  0
LINE
  5
77
330
1F
100
AcDbEntity
  8
2
  6
Continuous
 62
    30
370
    18
100
AcDbLine
 10
415.163895
 20
678.416741
 30
0.0
 11
415.163895
 21
608.416741
 31
0.0
  0
LINE
  5
78
330
1F
100
AcDbEntity
  8
1
  6
Continuous
 62
    30
370
    18
100
AcDbLine
 10
397.163895
 20
592.574483
 30
0.0
 11
396.663895
 21
592.574483
 31
0.0
  0
LINE
  5
7A
330
1F
100
AcDbEntity
  8
1
  6
Continuous
 62
    30
370
    18
100
AcDbLine
 10
363.163895
 20
581.570214
 30
0.0
 11
363.663895
 21
581.570214
 31
0.0
  0
LINE
  5
7B
330
1F
100
AcDbEntity
  8
1
  6
Continuous
 62
    30
370
    18
100
AcDbLine
 10
397.163895
 20
590.404273
 30
0.0
 11
396.663895
 21
590.404273
 31
0.0
  0
LINE
  5
7C
330
1F
100
AcDbEntity
  8
1
  6
Continuous
 62
    30
370
    18
100
AcDbLine
 10
432.269757
 20
519.416741
 30
0.0
 11
432.954642
 21
526.865601
 31
0.0
  0
LINE
  5
7D
330
1F
100
AcDbEntity
  8
1
  6
Continuous
 62
    30
370
    18
100
AcDbLine
 10
327.373147
 20
526.865601
 30
0.0
 11
328.058033
 21
519.416741
 31
0.0
  0
LINE
  5
7E
330
1F
100
AcDbEntity
  8
1
  6
Continuous
 62
    30
370
    18
100
AcDbLine
 10
397.163895
 20
595.696313
 30
0.0
 11
396.663895
 21
595.696313
 31
0.0
  0
LINE
  5
7F
330
1F
100
AcDbEntity
  8
1
  6
Continuous
 62
    30
370
    18
100
AcDbLine
 10
363.663895
 20
595.696313
 30
0.0
 11
363.163895
 21
595.696313
 31
0.0
  0
LINE
  5
80
330
1F
100
AcDbEntity
  8
1
  6
Continuous
 62
    30
370
    18
100
AcDbLine
 10
363.663895
 20
594.399856
 30
0.0
 11
363.163895
 21
594.399856
 31
0.0
  0
LINE
  5
81
330
1F
100
AcDbEntity
  8
1
  6
Continuous
 62
    30
370
    18
100
AcDbLine
 10
363.163895
 20
590.226414
 30
0.0
 11
363.663895
 21
590.226414
 31
0.0
  0
LINE
  5
82
330
1F
100
AcDbEntity
  8
1
  6
Continuous
 62
    30
370
    18
100
AcDbLine
 10
363.663895
 20
592.851414
 30
0.0
 11
363.163895
 21
592.851414
 31
0.0
  0
LINE
  5
83
330
1F
100
AcDbEntity
  8
1
  6
Continuous
 62
   252
370
    18
100
AcDbLine
 10
432.269757
 20
476.083407
 30
0.0
 11
432.269757
 21
519.416741
 31
0.0
  0
LINE
  5
84
330
1F
100
AcDbEntity
  8
1
  6
Continuous
 62
   252
370
    18
100
AcDbLine
 10
328.058033
 20
519.416741
 30
0.0
 11
328.058033
 21
476.083407
 31
0.0
  0
LINE
  5
85
330
1F
100
AcDbEntity
  8
1
  6
Continuous
 62
   252
370
    18
100
AcDbLine
 10
412.163895
 20
359.416741
 30
0.0
 11
412.163895
 21
453.416741
 31
0.0
  0
LINE
  5
86
330
1F
100
AcDbEntity
  8
1
  6
Continuous
 62
   252
370
    18
100
AcDbLine
 10
348.163895
 20
453.416741
 30
0.0
 11
348.163895
 21
359.416741
 31
0.0
  0
LINE
  5
87
330
1F
100
AcDbEntity
  8
1
  6
Continuous
 62
   252
370
    18
100
AcDbLine
 10
411.163895
 20
358.416741
 30
0.0
 11
412.163895
 21
359.416741
 31
0.0
  0
LINE
  5
88
330
1F
100
AcDbEntity
  8
1
  6
Continuous
 62
   252
370
    18
100
AcDbLine
 10
348.163895
 20
359.416741
 30
0.0
 11
349.163895
 21
358.416741
 31
0.0
  0
LINE
  5
89
330
1F
100
AcDbEntity
  8
1
  6
Continuous
 62
   252
370
    18
100
AcDbLine
 10
325.163895
 20
476.083407
 30
0.0
 11
325.163895
 21
455.416741
 31
0.0
  0
LINE
  5
8A
330
1F
100
AcDbEntity
  8
1
  6
Continuous
 62
   252
370
    18
100
AcDbLine
 10
435.163895
 20
455.416741
 30
0.0
 11
435.163895
 21
476.083407
 31
0.0
  0
LINE
  5
8B
330
1F
100
AcDbEntity
  8
2
  6
Continuous
 62
    30
370
    13
100
AcDbLine
 10
448.163895
 20
608.416741
 30
0.0
 11
415.163895
 21
608.416741
 31
0.0
  0
LINE
  5
8C
330
1F
100
AcDbEntity
  8
2
  6
Continuous
 62
    30
370
    13
100
AcDbLine
 10
312.163895
 20
608.416741
 30
0.0
 11
345.163895
 21
608.416741
 31
0.0
  0
LINE
  5
8D
330
1F
100
AcDbEntity
  8
2
  6
Continuous
 62
    30
370
    13
100
AcDbLine
 10
448.163895
 20
678.416741
 30
0.0
 11
415.163895
 21
678.416741
 31
0.0
  0
LINE
  5
8E
330
1F
100
AcDbEntity
  8
2
  6
Continuous
 62
    30
370
    13
100
AcDbLine
 10
312.163895
 20
678.416741
 30
0.0
 11
345.163895
 21
678.416741
 31
0.0
  0
LINE
  5
8F
330
1F
100
AcDbEntity
  8
1
  6
Continuous
 62
    30
370
    18
100
AcDbLine
 10
363.163895
 20
580.844751
 30
0.0
 11
363.663895
 21
580.844751
 31
0.0
  0
LINE
  5
90
330
1F
100
AcDbEntity
  8
1
  6
Continuous
 62
    30
370
    18
100
AcDbLine
 10
363.163895
 20
581.295847
 30
0.0
 11
363.663895
 21
581.295847
 31
0.0
  0
LINE
  5
91
330
1F
100
AcDbEntity
  8
1
  6
Continuous
 62
    30
370
    18
100
AcDbLine
 10
397.163895
 20
595.696313
 30
0.0
 11
397.163895
 21
593.353882
 31
0.0
  0
LINE
  5
92
330
1F
100
AcDbEntity
  8
1
  6
Continuous
 62
    30
370
    18
100
AcDbLine
 10
397.163895
 20
593.335017
 30
0.0
 11
396.663895
 21
593.335017
 31
0.0
  0
LINE
  5
93
330
1F
100
AcDbEntity
  8
1
  6
Continuous
 62
    30
370
    18
100
AcDbLine
 10
397.163895
 20
593.334426
 30
0.0
 11
397.163895
 21
593.332902
 31
0.0
  0
LINE
  5
94
330
1F
100
AcDbEntity
  8
1
  6
Continuous
 62
    30
370
    18
100
AcDbLine
 10
397.163895
 20
593.334426
 30
0.0
 11
396.663895
 21
593.334426
 31
0.0
  0
LINE
  5
95
330
1F
100
AcDbEntity
  8
1
  6
Continuous
 62
    30
370
    18
100
AcDbLine
 10
397.163895
 20
593.332901
 30
0.0
 11
396.663895
 21
593.332901
 31
0.0
  0
LINE
  5
96
330
1F
100
AcDbEntity
  8
1
  6
Continuous
 62
    30
370
    18
100
AcDbLine
 10
397.163895
 20
593.332279
 30
0.0
 11
397.163895
 21
593.330784
 31
0.0
  0
LINE
  5
97
330
1F
100
AcDbEntity
  8
1
  6
Continuous
 62
    30
370
    18
100
AcDbLine
 10
397.163895
 20
593.332279
 30
0.0
 11
396.663895
 21
593.332279
 31
0.0
  0
LINE
  5
98
330
1F
100
AcDbEntity
  8
1
  6
Continuous
 62
    30
370
    18
100
AcDbLine
 10
397.163895
 20
593.330747
 30
0.0
 11
396.663895
 21
593.330747
 31
0.0
  0
LINE
  5
99
330
1F
100
AcDbEntity
  8
1
  6
Continuous
 62
    30
370
    18
100
AcDbLine
 10
397.163895
 20
593.33012
 30
0.0
 11
396.663895
 21
593.33012
 31
0.0
  0
LINE
  5
9A
330
1F
100
AcDbEntity
  8
1
  6
Continuous
 62
    30
370
    18
100
AcDbLine
 10
363.163895
 20
581.576051
 30
0.0
 11
363.663895
 21
581.576051
 31
0.0
  0
LINE
  5
9B
330
1F
100
AcDbEntity
  8
1
  6
Continuous
 62
    30
370
    18
100
AcDbLine
 10
363.163895
 20
595.696313
 30
0.0
 11
363.163895
 21
594.383813
 31
0.0
  0
LINE
  5
9C
330
1F
100
AcDbEntity
  8
1
  6
Continuous
 62
    30
370
    13
100
AcDbLine
 10
397.163895
 20
590.142335
 30
0.0
 11
396.663895
 21
590.142335
 31
0.0
  0
LINE
  5
9D
330
1F
100
AcDbEntity
  8
1
  6
Continuous
 62
    30
370
    18
100
AcDbLine
 10
363.163895
 20
582.118229
 30
0.0
 11
363.663895
 21
582.118229
 31
0.0
  0
LINE
  5
9E
330
1F
100
AcDbEntity
  8
1
  6
Continuous
 62
    30
370
    18
100
AcDbLine
 10
363.163895
 20
589.25099
 30
0.0
 11
363.663895
 21
589.25099
 31
0.0
  0
LINE
  5
9F
330
1F
100
AcDbEntity
  8
1
  6
Continuous
 62
    30
370
    18
100
AcDbLine
 10
363.163895
 20
588.835683
 30
0.0
 11
363.663895
 21
588.835683
 31
0.0
  0
LINE
  5
A0
330
1F
100
AcDbEntity
  8
1
  6
Continuous
 62
    30
370
    18
100
AcDbLine
 10
397.163895
 20
580.844751
 30
0.0
 11
396.663895
 21
580.844751
 31
0.0
  0
LINE
  5
A1
330
1F
100
AcDbEntity
  8
1
  6
Continuous
 62
    30
370
    18
100
AcDbLine
 10
397.163895
 20
588.831471
 30
0.0
 11
396.663895
 21
588.831471
 31
0.0
  0
LINE
  5
A2
330
1F
100
AcDbEntity
  8
1
  6
Continuous
 62
    30
370
    18
100
AcDbLine
 10
397.163895
 20
589.242157
 30
0.0
 11
396.663895
 21
589.242157
 31
0.0
  0
LINE
  5
A3
330
1F
100
AcDbEntity
  8
1
  6
Continuous
 62
    30
370
    18
100
AcDbLine
 10
363.163895
 20
594.399856
 30
0.0
 11
363.163895
 21
593.087356
 31
0.0
  0
LINE
  5
A4
330
1F
100
AcDbEntity
  8
1
  6
Continuous
 62
    30
370
    18
100
AcDbLine
 10
363.163895
 20
593.087356
 30
0.0
 11
363.163895
 21
592.851298
 31
0.0
  0
LINE
  5
A5
330
1F
100
AcDbEntity
  8
1
  6
Continuous
 62
    30
370
    18
100
AcDbLine
 10
363.163895
 20
592.851414
 30
0.0
 11
363.163895
 21
591.538914
 31
0.0
  0
LINE
  5
A6
330
1F
100
AcDbEntity
  8
1
  6
Continuous
 62
    30
370
    18
100
AcDbLine
 10
363.163895
 20
591.538914
 30
0.0
 11
363.163895
 21
590.226414
 31
0.0
  0
LINE
  5
A7
330
1F
100
AcDbEntity
  8
1
  6
Continuous
 62
    30
370
    18
100
AcDbLine
 10
336.086395
 20
536.416741
 30
0.0
 11
347.163895
 21
536.416741
 31
0.0
  0
LINE
  5
A8
330
1F
100
AcDbEntity
  8
1
  6
Continuous
 62
    30
370
    18
100
AcDbLine
 10
363.663895
 20
599.012793
 30
0.0
 11
363.663895
 21
552.916741
 31
0.0
  0
LINE
  5
A9
330
1F
100
AcDbEntity
  8
1
  6
Continuous
 62
    30
370
    13
100
AcDbLine
 10
370.947679
 20
552.822146
 30
0.0
 11
370.947679
 21
607.639073
 31
0.0
  0
LINE
  5
AA
330
1F
100
AcDbEntity
  8
1
  6
Continuous
 62
    30
370
    13
100
AcDbLine
 10
340.64045
 20
526.865601
 30
0.0
 11
327.373147
 21
526.865601
 31
0.0
  0
LINE
  5
AB
330
1F
100
AcDbEntity
  8
1
  6
Continuous
 62
    30
370
    18
100
AcDbLine
 10
424.241395
 20
536.416741
 30
0.0
 11
413.163895
 21
536.416741
 31
0.0
  0
LINE
  5
AC
330
1F
100
AcDbEntity
  8
1
  6
Continuous
 62
    30
370
    18
100
AcDbLine
 10
396.663895
 20
599.012793
 30
0.0
 11
396.663895
 21
552.916741
 31
0.0
  0
LINE
  5
AD
330
1F
100
AcDbEntity
  8
1
  6
Continuous
 62
    30
370
    13
100
AcDbLine
 10
389.380111
 20
552.822146
 30
0.0
 11
389.380111
 21
607.639073
 31
0.0
  0
LINE
  5
AE
330
1F
100
AcDbEntity
  8
1
  6
Continuous
 62
    30
370
    18
100
AcDbLine
 10
432.269757
 20
519.416741
 30
0.0
 11
328.058033
 21
519.416741
 31
0.0
  0
LINE
  5
AF
330
1F
100
AcDbEntity
  8
1
  6
Continuous
 62
    30
370
    13
100
AcDbLine
 10
419.68734
 20
526.865601
 30
0.0
 11
432.954642
 21
526.865601
 31
0.0
  0
LINE
  5
B0
330
1F
100
AcDbEntity
  8
1
  6
Continuous
 62
    30
370
    13
100
AcDbLine
 10
389.71036
 20
548.381005
 30
0.0
 11
370.61743
 21
548.381005
 31
0.0
  0
LINE
  5
B1
330
1F
100
AcDbEntity
  8
1
  6
Continuous
 62
   252
370
    18
100
AcDbLine
 10
432.269757
 20
519.416741
 30
0.0
 11
432.00957
 21
519.416741
 31
0.0
  0
LINE
  5
B2
330
1F
100
AcDbEntity
  8
1
  6
Continuous
 62
   252
370
    18
100
AcDbLine
 10
328.31822
 20
519.416741
 30
0.0
 11
328.058033
 21
519.416741
 31
0.0
  0
LINE
  5
B3
330
1F
100
AcDbEntity
  8
1
  6
Continuous
 62
   252
370
    18
100
AcDbLine
 10
349.163895
 20
358.416741
 30
0.0
 11
380.163895
 21
358.416741
 31
0.0
  0
LINE
  5
B4
330
1F
100
AcDbEntity
  8
1
  6
Continuous
 62
   252
370
    18
100
AcDbLine
 10
380.163895
 20
358.416741
 30
0.0
 11
411.163895
 21
358.416741
 31
0.0
  0
LINE
  5
B5
330
1F
100
AcDbEntity
  8
1
  6
Continuous
 62
   252
370
    18
100
AcDbLine
 10
412.163895
 20
359.416741
 30
0.0
 11
380.163895
 21
359.416741
 31
0.0
  0
LINE
  5
B6
330
1F
100
AcDbEntity
  8
1
  6
Continuous
 62
   252
370
    18
100
AcDbLine
 10
380.163895
 20
359.416741
 30
0.0
 11
348.163895
 21
359.416741
 31
0.0
  0
LINE
  5
B7
330
1F
100
AcDbEntity
  8
1
  6
Continuous
 62
   252
370
    13
100
AcDbLine
 10
412.163895
 20
453.416741
 30
0.0
 11
348.163895
 21
453.416741
 31
0.0
  0
LINE
  5
B8
330
1F
100
AcDbEntity
  8
1
  6
Continuous
 62
   252
370
    18
100
AcDbLine
 10
328.31822
 20
476.083407
 30
0.0
 11
328.31822
 21
519.416741
 31
0.0
  0
LINE
  5
B9
330
1F
100
AcDbEntity
  8
1
  6
Continuous
 62
   252
370
    18
100
AcDbLine
 10
432.00957
 20
519.416741
 30
0.0
 11
432.00957
 21
476.083407
 31
0.0
  0
LINE
  5
BA
330
1F
100
AcDbEntity
  8
1
  6
Continuous
 62
   252
370
    18
100
AcDbLine
 10
410.590633
 20
519.416741
 30
0.0
 11
401.582831
 21
519.416741
 31
0.0
  0
LINE
  5
BB
330
1F
100
AcDbEntity
  8
1
  6
Continuous
 62
   252
370
    18
100
AcDbLine
 10
410.590633
 20
476.083407
 30
0.0
 11
410.590633
 21
519.416741
 31
0.0
  0
LINE
  5
BC
330
1F
100
AcDbEntity
  8
1
  6
Continuous
 62
   252
370
    18
100
AcDbLine
 10
401.582831
 20
519.416741
 30
0.0
 11
401.582831
 21
476.083407
 31
0.0
  0
LINE
  5
BD
330
1F
100
AcDbEntity
  8
1
  6
Continuous
 62
   252
370
    18
100
AcDbLine
 10
358.744959
 20
476.083407
 30
0.0
 11
358.744959
 21
519.416741
 31
0.0
  0
LINE
  5
BE
330
1F
100
AcDbEntity
  8
1
  6
Continuous
 62
   252
370
    18
100
AcDbLine
 10
358.744959
 20
519.416741
 30
0.0
 11
349.737156
 21
519.416741
 31
0.0
  0
LINE
  5
BF
330
1F
100
AcDbEntity
  8
1
  6
Continuous
 62
   252
370
    18
100
AcDbLine
 10
349.737156
 20
519.416741
 30
0.0
 11
349.737156
 21
476.083407
 31
0.0
  0
LINE
  5
C0
330
1F
100
AcDbEntity
  8
1
  6
Continuous
 62
   252
370
    18
100
AcDbLine
 10
435.163895
 20
476.083407
 30
0.0
 11
325.163895
 21
476.083407
 31
0.0
  0
LINE
  5
C1
330
1F
100
AcDbEntity
  8
1
  6
Continuous
 62
   252
370
    13
100
AcDbLine
 10
435.163895
 20
455.416741
 30
0.0
 11
325.163895
 21
455.416741
 31
0.0
  0
LINE
  5
C2
330
1F
100
AcDbEntity
  8
1
  6
Continuous
 62
   252
370
    18
100
AcDbLine
 10
434.163895
 20
454.416741
 30
0.0
 11
326.163895
 21
454.416741
 31
0.0
  0
LINE
  5
C3
330
1F
100
AcDbEntity
  8
2
  6
Continuous
 62
    30
370
    18
100
AcDbLine
 10
828.047911
 20
755.416741
 30
0.0
 11
828.047911
 21
806.916741
 31
0.0
  0
LINE
  5
C4
330
1F
100
AcDbEntity
  8
2
  6
Continuous
 62
    30
370
    18
100
AcDbLine
 10
795.047911
 20
806.916741
 30
0.0
 11
795.047911
 21
755.416741
 31
0.0
  0
LINE
  5
C5
330
1F
100
AcDbEntity
  8
2
  6
Continuous
 62
    30
370
    18
100
AcDbLine
 10
795.047911
 20
685.416741
 30
0.0
 11
795.047911
 21
633.916741
 31
0.0
  0
LINE
  5
C6
330
1F
100
AcDbEntity
  8
2
  6
Continuous
 62
    30
370
    18
100
AcDbLine
 10
828.047911
 20
633.916741
 30
0.0
 11
828.047911
 21
685.416741
 31
0.0
  0
LINE
  5
C7
330
1F
100
AcDbEntity
  8
2
  6
Continuous
 62
    30
370
    18
100
AcDbLine
 10
828.047911
 20
685.416741
 30
0.0
 11
828.047911
 21
755.416741
 31
0.0
  0
LINE
  5
C8
330
1F
100
AcDbEntity
  8
2
  6
Continuous
 62
    30
370
    18
100
AcDbLine
 10
795.047911
 20
755.416741
 30
0.0
 11
795.047911
 21
685.416741
 31
0.0
  0
LINE
  5
C9
330
1F
100
AcDbEntity
  8
1
  6
Continuous
 62
    30
370
    18
100
AcDbLine
 10
756.778929
 20
625.381005
 30
0.0
 11
759.442049
 21
596.416741
 31
0.0
  0
LINE
  5
CA
330
1F
100
AcDbEntity
  8
1
  6
Continuous
 62
    30
370
    18
100
AcDbLine
 10
863.653772
 20
596.416741
 30
0.0
 11
866.316892
 21
625.381005
 31
0.0
  0
LINE
  5
CB
330
1F
100
AcDbEntity
  8
1
  6
Continuous
 62
   252
370
    18
100
AcDbLine
 10
843.547911
 20
436.416741
 30
0.0
 11
843.547911
 21
530.416741
 31
0.0
  0
LINE
  5
CC
330
1F
100
AcDbEntity
  8
1
  6
Continuous
 62
   252
370
    18
100
AcDbLine
 10
779.547911
 20
530.416741
 30
0.0
 11
779.547911
 21
436.416741
 31
0.0
  0
LINE
  5
CD
330
1F
100
AcDbEntity
  8
1
  6
Continuous
 62
   252
370
    18
100
AcDbLine
 10
842.547911
 20
435.416741
 30
0.0
 11
843.547911
 21
436.416741
 31
0.0
  0
LINE
  5
CE
330
1F
100
AcDbEntity
  8
1
  6
Continuous
 62
   252
370
    18
100
AcDbLine
 10
779.547911
 20
436.416741
 30
0.0
 11
780.547911
 21
435.416741
 31
0.0
  0
LINE
  5
CF
330
1F
100
AcDbEntity
  8
1
  6
Continuous
 62
   252
370
    18
100
AcDbLine
 10
756.547911
 20
553.083407
 30
0.0
 11
756.547911
 21
532.416741
 31
0.0
  0
LINE
  5
D0
330
1F
100
AcDbEntity
  8
1
  6
Continuous
 62
   252
370
    18
100
AcDbLine
 10
866.547911
 20
532.416741
 30
0.0
 11
866.547911
 21
553.083407
 31
0.0
  0
LINE
  5
D1
330
1F
100
AcDbEntity
  8
2
  6
Continuous
 62
    30
370
    13
100
AcDbLine
 10
795.047911
 20
685.416741
 30
0.0
 11
828.047911
 21
685.416741
 31
0.0
  0
LINE
  5
D2
330
1F
100
AcDbEntity
  8
2
  6
Continuous
 62
    30
370
    13
100
AcDbLine
 10
795.047911
 20
755.416741
 30
0.0
 11
828.047911
 21
755.416741
 31
0.0
  0
LINE
  5
D3
330
1F
100
AcDbEntity
  8
1
  6
Continuous
 62
    30
370
    13
100
AcDbLine
 10
765.9546
 20
629.916741
 30
0.0
 11
757.328838
 21
629.822146
 31
0.0
  0
LINE
  5
D4
330
1F
100
AcDbEntity
  8
1
  6
Continuous
 62
    30
370
    13
100
AcDbLine
 10
857.141222
 20
629.916741
 30
0.0
 11
865.766983
 21
629.822146
 31
0.0
  0
LINE
  5
D5
330
1F
100
AcDbEntity
  8
1
  6
Continuous
 62
    30
370
    13
100
AcDbLine
 10
765.9546
 20
629.916741
 30
0.0
 11
784.371404
 21
629.916741
 31
0.0
  0
LINE
  5
D6
330
1F
100
AcDbEntity
  8
1
  6
Continuous
 62
    30
370
    13
100
AcDbLine
 10
838.724417
 20
629.916741
 30
0.0
 11
857.141222
 21
629.916741
 31
0.0
  0
LINE
  5
D7
330
1F
100
AcDbEntity
  8
1
  6
Continuous
 62
    30
370
    13
100
AcDbLine
 10
793.097805
 20
630.558942
 30
0.0
 11
784.371404
 21
629.916741
 31
0.0
  0
LINE
  5
D8
330
1F
100
AcDbEntity
  8
1
  6
Continuous
 62
    30
370
    13
100
AcDbLine
 10
829.998016
 20
630.558942
 30
0.0
 11
838.724417
 21
629.916741
 31
0.0
  0
LINE
  5
D9
330
1F
100
AcDbEntity
  8
1
  6
Continuous
 62
    30
370
    18
100
AcDbLine
 10
782.327609
 20
613.416741
 30
0.0
 11
840.768212
 21
613.416741
 31
0.0
  0
LINE
  5
DA
330
1F
100
AcDbEntity
  8
1
  6
Continuous
 62
    30
370
    13
100
AcDbLine
 10
846.544486
 20
603.865601
 30
0.0
 11
776.551335
 21
603.865601
 31
0.0
  0
LINE
  5
DB
330
1F
100
AcDbEntity
  8
1
  6
Continuous
 62
    30
370
    18
100
AcDbLine
 10
759.442049
 20
596.416741
 30
0.0
 11
863.653772
 21
596.416741
 31
0.0
  0
LINE
  5
DC
330
1F
100
AcDbEntity
  8
1
  6
Continuous
 62
    30
370
    13
100
AcDbLine
 10
756.778929
 20
625.381005
 30
0.0
 11
757.617341
 21
625.381005
 31
0.0
  0
LINE
  5
DD
330
1F
100
AcDbEntity
  8
1
  6
Continuous
 62
    30
370
    13
100
AcDbLine
 10
866.316892
 20
625.381005
 30
0.0
 11
865.478481
 21
625.381005
 31
0.0
  0
LINE
  5
DE
330
1F
100
AcDbEntity
  8
1
  6
Continuous
 62
   252
370
    18
100
AcDbLine
 10
842.547911
 20
435.416741
 30
0.0
 11
780.547911
 21
435.416741
 31
0.0
  0
LINE
  5
DF
330
1F
100
AcDbEntity
  8
1
  6
Continuous
 62
   252
370
    18
100
AcDbLine
 10
843.547911
 20
436.416741
 30
0.0
 11
779.547911
 21
436.416741
 31
0.0
  0
LINE
  5
E0
330
1F
100
AcDbEntity
  8
1
  6
Continuous
 62
   252
370
    13
100
AcDbLine
 10
843.547911
 20
530.416741
 30
0.0
 11
779.547911
 21
530.416741
 31
0.0
  0
LINE
  5
E1
330
1F
100
AcDbEntity
  8
1
  6
Continuous
 62
   252
370
    18
100
AcDbLine
 10
769.248568
 20
596.416741
 30
0.0
 11
764.047911
 21
596.416741
 31
0.0
  0
LINE
  5
E2
330
1F
100
AcDbEntity
  8
1
  6
Continuous
 62
   252
370
    18
100
AcDbLine
 10
764.047911
 20
596.416741
 30
0.0
 11
764.047911
 21
553.083407
 31
0.0
  0
LINE
  5
E3
330
1F
100
AcDbEntity
  8
1
  6
Continuous
 62
   252
370
    18
100
AcDbLine
 10
859.047911
 20
596.416741
 30
0.0
 11
853.847254
 21
596.416741
 31
0.0
  0
LINE
  5
E4
330
1F
100
AcDbEntity
  8
1
  6
Continuous
 62
   252
370
    18
100
AcDbLine
 10
859.047911
 20
553.083407
 30
0.0
 11
859.047911
 21
596.416741
 31
0.0
  0
LINE
  5
E5
330
1F
100
AcDbEntity
  8
1
  6
Continuous
 62
   252
370
    18
100
AcDbLine
 10
853.847254
 20
596.416741
 30
0.0
 11
853.847254
 21
553.083407
 31
0.0
  0
LINE
  5
E6
330
1F
100
AcDbEntity
  8
1
  6
Continuous
 62
   252
370
    18
100
AcDbLine
 10
769.248568
 20
553.083407
 30
0.0
 11
769.248568
 21
596.416741
 31
0.0
  0
LINE
  5
E7
330
1F
100
AcDbEntity
  8
1
  6
Continuous
 62
   252
370
    18
100
AcDbLine
 10
816.748568
 20
553.083407
 30
0.0
 11
816.748568
 21
596.416741
 31
0.0
  0
LINE
  5
E8
330
1F
100
AcDbEntity
  8
1
  6
Continuous
 62
   252
370
    18
100
AcDbLine
 10
816.748568
 20
596.416741
 30
0.0
 11
806.347254
 21
596.416741
 31
0.0
  0
LINE
  5
E9
330
1F
100
AcDbEntity
  8
1
  6
Continuous
 62
   252
370
    18
100
AcDbLine
 10
806.347254
 20
596.416741
 30
0.0
 11
806.347254
 21
553.083407
 31
0.0
  0
LINE
  5
EA
330
1F
100
AcDbEntity
  8
1
  6
Continuous
 62
   252
370
    18
100
AcDbLine
 10
866.547911
 20
553.083407
 30
0.0
 11
756.547911
 21
553.083407
 31
0.0
  0
LINE
  5
EB
330
1F
100
AcDbEntity
  8
1
  6
Continuous
 62
   252
370
    13
100
AcDbLine
 10
756.547911
 20
532.416741
 30
0.0
 11
866.547911
 21
532.416741
 31
0.0
  0
LINE
  5
EC
330
1F
100
AcDbEntity
  8
1
  6
Continuous
 62
   252
370
    18
100
AcDbLine
 10
865.547911
 20
531.416741
 30
0.0
 11
757.547911
 21
531.416741
 31
0.0
  0
LINE
  5
ED
330
1F
100
AcDbEntity
  8
2
  6
Continuous
 62
    30
370
    18
100
AcDbLine
 10
328.663895
 20
131.340966
 30
0.0
 11
431.663895
 21
131.340966
 31
0.0
  0
LINE
  5
EE
330
1F
100
AcDbEntity
  8
2
  6
Continuous
 62
    30
370
    18
100
AcDbLine
 10
431.663895
 20
164.340966
 30
0.0
 11
328.663895
 21
164.340966
 31
0.0
  0
LINE
  5
EF
330
1F
100
AcDbEntity
  8
1
  6
Continuous
 62
    30
370
    18
100
AcDbLine
 10
397.163895
 20
166.674999
 30
0.0
 11
396.663895
 21
166.674999
 31
0.0
  0
LINE
  5
F0
330
1F
100
AcDbEntity
  8
1
  6
Continuous
 62
    30
370
    18
100
AcDbLine
 10
363.163895
 20
129.006934
 30
0.0
 11
363.663895
 21
129.006934
 31
0.0
  0
LINE
  5
F1
330
1F
100
AcDbEntity
  8
1
  6
Continuous
 62
    30
370
    18
100
AcDbLine
 10
397.163895
 20
169.715966
 30
0.0
 11
396.663895
 21
169.715966
 31
0.0
  0
LINE
  5
F2
330
1F
100
AcDbEntity
  8
1
  6
Continuous
 62
    30
370
    18
100
AcDbLine
 10
396.663895
 20
167.090966
 30
0.0
 11
397.163895
 21
167.090966
 31
0.0
  0
LINE
  5
F3
330
1F
100
AcDbEntity
  8
1
  6
Continuous
 62
    30
370
    18
100
AcDbLine
 10
363.163895
 20
125.965966
 30
0.0
 11
363.663895
 21
125.965966
 31
0.0
  0
LINE
  5
F4
330
1F
100
AcDbEntity
  8
1
  6
Continuous
 62
    30
370
    18
100
AcDbLine
 10
363.663895
 20
128.590966
 30
0.0
 11
363.163895
 21
128.590966
 31
0.0
  0
LINE
  5
F5
330
1F
100
AcDbEntity
  8
1
  6
Continuous
 62
    30
370
    13
100
AcDbLine
 10
340.612934
 20
182.861906
 30
0.0
 11
347.163895
 21
177.061268
 31
0.0
  0
LINE
  5
F6
330
1F
100
AcDbEntity
  8
1
  6
Continuous
 62
    30
370
    13
100
AcDbLine
 10
340.612934
 20
112.820026
 30
0.0
 11
347.163895
 21
118.620664
 31
0.0
  0
LINE
  5
F7
330
1F
100
AcDbEntity
  8
1
  6
Continuous
 62
    30
370
    13
100
AcDbLine
 10
347.163895
 20
118.620664
 30
0.0
 11
347.163895
 21
131.341084
 31
0.0
  0
LINE
  5
F8
330
1F
100
AcDbEntity
  8
1
  6
Continuous
 62
    30
370
    13
100
AcDbLine
 10
347.163895
 20
164.340849
 30
0.0
 11
347.163895
 21
177.061268
 31
0.0
  0
LINE
  5
F9
330
1F
100
AcDbEntity
  8
1
  6
Continuous
 62
    30
370
    18
100
AcDbLine
 10
397.163895
 20
129.609178
 30
0.0
 11
396.663895
 21
129.609178
 31
0.0
  0
LINE
  5
FA
330
1F
100
AcDbEntity
  8
1
  6
Continuous
 62
    30
370
    18
100
AcDbLine
 10
363.163895
 20
164.828999
 30
0.0
 11
363.663895
 21
164.828999
 31
0.0
  0
LINE
  5
FB
330
1F
100
AcDbEntity
  8
1
  6
Continuous
 62
    30
370
    18
100
AcDbLine
 10
363.163895
 20
166.072754
 30
0.0
 11
363.663895
 21
166.072754
 31
0.0
  0
LINE
  5
FC
330
1F
100
AcDbEntity
  8
1
  6
Continuous
 62
    30
370
    18
100
AcDbLine
 10
363.163895
 20
165.166118
 30
0.0
 11
363.663895
 21
165.166118
 31
0.0
  0
LINE
  5
FD
330
1F
100
AcDbEntity
  8
1
  6
Continuous
 62
    30
370
    18
100
AcDbLine
 10
397.163895
 20
130.515814
 30
0.0
 11
396.663895
 21
130.515814
 31
0.0
  0
LINE
  5
FE
330
1F
100
AcDbEntity
  8
1
  6
Continuous
 62
    30
370
    18
100
AcDbLine
 10
397.163895
 20
130.852934
 30
0.0
 11
396.663895
 21
130.852934
 31
0.0
  0
LINE
  5
FF
330
1F
100
AcDbEntity
  8
1
  6
Continuous
 62
    30
370
    18
100
AcDbLine
 10
397.163895
 20
130.875755
 30
0.0
 11
396.663895
 21
130.875755
 31
0.0
  0
LINE
  5
100
330
1F
100
AcDbEntity
  8
1
  6
Continuous
 62
    30
370
    18
100
AcDbLine
 10
363.163895
 20
164.806177
 30
0.0
 11
363.663895
 21
164.806177
 31
0.0
  0
LINE
  5
101
330
1F
100
AcDbEntity
  8
1
  6
Continuous
 62
    30
370
    18
100
AcDbLine
 10
397.163895
 20
169.715966
 30
0.0
 11
397.163895
 21
167.090966
 31
0.0
  0
LINE
  5
102
330
1F
100
AcDbEntity
  8
1
  6
Continuous
 62
    30
370
    18
100
AcDbLine
 10
363.163895
 20
125.965966
 30
0.0
 11
363.163895
 21
128.590966
 31
0.0
  0
LINE
  5
103
330
1F
100
AcDbEntity
  8
1
  6
Continuous
 62
    30
370
    18
100
AcDbLine
 10
397.163895
 20
166.674999
 30
0.0
 11
397.163895
 21
164.340929
 31
0.0
  0
LINE
  5
104
330
1F
100
AcDbEntity
  8
1
  6
Continuous
 62
    30
370
    18
100
AcDbLine
 10
363.163895
 20
129.006934
 30
0.0
 11
363.163895
 21
131.341004
 31
0.0
  0
LINE
  5
105
330
1F
100
AcDbEntity
  8
1
  6
Continuous
 62
    30
370
    18
100
AcDbLine
 10
363.663895
 20
131.342899
 30
0.0
 11
363.663895
 21
102.244914
 31
0.0
  0
LINE
  5
106
330
1F
100
AcDbEntity
  8
1
  6
Continuous
 62
    30
370
    18
100
AcDbLine
 10
363.663895
 20
193.437019
 30
0.0
 11
363.663895
 21
164.339033
 31
0.0
  0
LINE
  5
107
330
1F
100
AcDbEntity
  8
1
  6
Continuous
 62
    30
370
    13
100
AcDbLine
 10
370.947679
 20
202.063299
 30
0.0
 11
370.947679
 21
164.339873
 31
0.0
  0
LINE
  5
108
330
1F
100
AcDbEntity
  8
1
  6
Continuous
 62
    30
370
    13
100
AcDbLine
 10
370.947679
 20
131.342059
 30
0.0
 11
370.947679
 21
93.618633
 31
0.0
  0
LINE
  5
109
330
1F
100
AcDbEntity
  8
1
  6
Continuous
 62
    30
370
    13
100
AcDbLine
 10
419.714856
 20
112.820026
 30
0.0
 11
413.163895
 21
118.620664
 31
0.0
  0
LINE
  5
10A
330
1F
100
AcDbEntity
  8
1
  6
Continuous
 62
    30
370
    13
100
AcDbLine
 10
413.163895
 20
131.341084
 30
0.0
 11
413.163895
 21
118.620664
 31
0.0
  0
LINE
  5
10B
330
1F
100
AcDbEntity
  8
1
  6
Continuous
 62
    30
370
    13
100
AcDbLine
 10
413.163895
 20
177.061268
 30
0.0
 11
413.163895
 21
164.340849
 31
0.0
  0
LINE
  5
10C
330
1F
100
AcDbEntity
  8
1
  6
Continuous
 62
    30
370
    13
100
AcDbLine
 10
419.714856
 20
182.861906
 30
0.0
 11
413.163895
 21
177.061268
 31
0.0
  0
LINE
  5
10D
330
1F
100
AcDbEntity
  8
1
  6
Continuous
 62
    30
370
    18
100
AcDbLine
 10
396.663895
 20
164.339033
 30
0.0
 11
396.663895
 21
193.437019
 31
0.0
  0
LINE
  5
10E
330
1F
100
AcDbEntity
  8
1
  6
Continuous
 62
    30
370
    18
100
AcDbLine
 10
396.663895
 20
102.244914
 30
0.0
 11
396.663895
 21
131.342899
 31
0.0
  0
LINE
  5
10F
330
1F
100
AcDbEntity
  8
1
  6
Continuous
 62
    30
370
    13
100
AcDbLine
 10
389.380111
 20
93.618633
 30
0.0
 11
389.380111
 21
131.342059
 31
0.0
  0
LINE
  5
110
330
1F
100
AcDbEntity
  8
1
  6
Continuous
 62
    30
370
    13
100
AcDbLine
 10
389.380111
 20
164.339873
 30
0.0
 11
389.380111
 21
202.063299
 31
0.0
  0
ARC
  5
111
330
1F
100
AcDbEntity
  8
2
  6
Continuous
 62
    30
370
    18
100
AcDbCircle
 10
380.163895
 20
608.416741
 30
0.0
 40
68.0
100
AcDbArc
 50
180.0
 51
253.262812
  0
ARC
  5
112
330
1F
100
AcDbEntity
  8
2
  6
Continuous
 62
    30
370
    18
100
AcDbCircle
 10
380.163895
 20
608.416741
 30
0.0
 40
68.0
100
AcDbArc
 50
286.737188
 51
0.0
  0
ARC
  5
113
330
1F
100
AcDbEntity
  8
2
  6
Continuous
 62
    30
370
    18
100
AcDbCircle
 10
380.163895
 20
678.416741
 30
0.0
 40
67.99999999999997
100
AcDbArc
 50
0.0
 51
180.0
  0
ARC
  5
114
330
1F
100
AcDbEntity
  8
2
  6
Continuous
 62
    30
370
    18
100
AcDbCircle
 10
380.163895
 20
678.416741
 30
0.0
 40
34.99999999999998
100
AcDbArc
 50
0.0
 51
180.0
  0
ARC
  5
115
330
1F
100
AcDbEntity
  8
1
  6
Continuous
 62
    30
370
    18
100
AcDbCircle
 10
336.086395
 20
527.666741
 30
0.0
 40
8.75
100
AcDbArc
 50
90.0
 51
185.253292
  0
ARC
  5
116
330
1F
100
AcDbEntity
  8
1
  6
Continuous
 62
    30
370
    18
100
AcDbCircle
 10
424.241395
 20
527.666741
 30
0.0
 40
8.75
100
AcDbArc
 50
354.746708
 51
90.0
  0
ARC
  5
117
330
1F
100
AcDbEntity
  8
1
  6
Continuous
 62
    30
370
    18
100
AcDbCircle
 10
372.413895
 20
599.012793
 30
0.0
 40
8.75
100
AcDbArc
 50
99.646422
 51
180.0
  0
ARC
  5
118
330
1F
100
AcDbEntity
  8
1
  6
Continuous
 62
    30
370
    18
100
AcDbCircle
 10
387.913895
 20
599.012793
 30
0.0
 40
8.75
100
AcDbArc
 50
0.0
 51
80.353578
  0
ARC
  5
119
330
1F
100
AcDbEntity
  8
1
  6
Continuous
 62
    30
370
    18
100
AcDbCircle
 10
380.163895
 20
553.416741
 30
0.0
 40
54.99999999999999
100
AcDbArc
 50
80.353578
 51
99.646422
  0
ARC
  5
11A
330
1F
100
AcDbEntity
  8
1
  6
Continuous
 62
   252
370
    18
100
AcDbCircle
 10
347.163895
 20
453.416741
 30
0.0
 40
1.0
100
AcDbArc
 50
0.0
 51
90.0
  0
ARC
  5
11B
330
1F
100
AcDbEntity
  8
1
  6
Continuous
 62
   252
370
    18
100
AcDbCircle
 10
413.163895
 20
453.416741
 30
0.0
 40
1.0
100
AcDbArc
 50
90.0
 51
180.0
  0
ARC
  5
11C
330
1F
100
AcDbEntity
  8
1
  6
Continuous
 62
   252
370
    18
100
AcDbCircle
 10
326.163895
 20
455.416741
 30
0.0
 40
1.0
100
AcDbArc
 50
180.0
 51
270.0
  0
ARC
  5
11D
330
1F
100
AcDbEntity
  8
1
  6
Continuous
 62
   252
370
    18
100
AcDbCircle
 10
434.163895
 20
455.416741
 30
0.0
 40
1.0
100
AcDbArc
 50
270.0
 51
0.0
  0
ARC
  5
11E
330
1F
100
AcDbEntity
  8
2
  6
Continuous
 62
    30
370
    18
100
AcDbCircle
 10
380.163895
 20
608.416741
 30
0.0
 40
34.99999999999999
100
AcDbArc
 50
298.124999
 51
0.0
  0
ARC
  5
11F
330
1F
100
AcDbEntity
  8
2
  6
Continuous
 62
    30
370
    18
100
AcDbCircle
 10
380.163895
 20
608.416741
 30
0.0
 40
34.99999999999999
100
AcDbArc
 50
180.0
 51
241.875001
  0
ARC
  5
120
330
1F
100
AcDbEntity
  8
2
  6
Continuous
 62
    30
370
    18
100
AcDbCircle
 10
811.547911
 20
806.916741
 30
0.0
 40
16.5
100
AcDbArc
 50
0.0
 51
180.0
  0
ARC
  5
121
330
1F
100
AcDbEntity
  8
2
  6
Continuous
 62
    30
370
    18
100
AcDbCircle
 10
811.547911
 20
633.916741
 30
0.0
 40
16.5
100
AcDbArc
 50
180.0
 51
0.0
  0
ARC
  5
122
330
1F
100
AcDbEntity
  8
1
  6
Continuous
 62
    30
370
    18
100
AcDbCircle
 10
811.547911
 20
630.416741
 30
0.0
 40
54.99999999999999
100
AcDbArc
 50
0.0
 51
72.544031
  0
ARC
  5
123
330
1F
100
AcDbEntity
  8
1
  6
Continuous
 62
    30
370
    18
100
AcDbCircle
 10
811.547911
 20
630.416741
 30
0.0
 40
54.99999999999999
100
AcDbArc
 50
107.455592
 51
185.253292
  0
ARC
  5
124
330
1F
100
AcDbEntity
  8
1
  6
Continuous
 62
    30
370
    18
100
AcDbCircle
 10
811.547911
 20
630.416741
 30
0.0
 40
54.99999999999999
100
AcDbArc
 50
354.746708
 51
0.0
  0
ARC
  5
125
330
1F
100
AcDbEntity
  8
1
  6
Continuous
 62
   252
370
    18
100
AcDbCircle
 10
778.547911
 20
530.416741
 30
0.0
 40
1.0
100
AcDbArc
 50
0.0
 51
90.0
  0
ARC
  5
126
330
1F
100
AcDbEntity
  8
1
  6
Continuous
 62
   252
370
    18
100
AcDbCircle
 10
844.547911
 20
530.416741
 30
0.0
 40
1.0
100
AcDbArc
 50
90.0
 51
180.0
  0
ARC
  5
127
330
1F
100
AcDbEntity
  8
1
  6
Continuous
 62
   252
370
    18
100
AcDbCircle
 10
757.547911
 20
532.416741
 30
0.0
 40
1.0
100
AcDbArc
 50
180.0
 51
270.0
  0
ARC
  5
128
330
1F
100
AcDbEntity
  8
1
  6
Continuous
 62
   252
370
    18
100
AcDbCircle
 10
865.547911
 20
532.416741
 30
0.0
 40
1.0
100
AcDbArc
 50
270.0
 51
0.0
  0
ARC
  5
129
330
1F
100
AcDbEntity
  8
1
  6
Continuous
 62
    30
370
    18
100
AcDbCircle
 10
811.547911
 20
631.916741
 30
0.0
 40
18.5
100
AcDbArc
 50
355.791021
 51
26.888816
  0
ARC
  5
12A
330
1F
100
AcDbEntity
  8
1
  6
Continuous
 62
    30
370
    18
100
AcDbCircle
 10
811.547911
 20
631.916741
 30
0.0
 40
18.5
100
AcDbArc
 50
153.111184
 51
184.208979
  0
ARC
  5
12B
330
1F
100
AcDbEntity
  8
1
  6
Continuous
 62
    30
370
    13
100
AcDbCircle
 10
811.547911
 20
631.916741
 30
0.0
 40
27.25
100
AcDbArc
 50
127.262595
 51
184.208979
  0
ARC
  5
12C
330
1F
100
AcDbEntity
  8
1
  6
Continuous
 62
    30
370
    13
100
AcDbCircle
 10
811.547911
 20
631.916741
 30
0.0
 40
27.25
100
AcDbArc
 50
355.791021
 51
52.737405
  0
ARC
  5
12D
330
1F
100
AcDbEntity
  8
1
  6
Continuous
 62
    30
370
    13
100
AcDbCircle
 10
811.547911
 20
630.416741
 30
0.0
 40
54.22233265598181
100
AcDbArc
 50
107.715003
 51
180.62831
  0
ARC
  5
12E
330
1F
100
AcDbEntity
  8
1
  6
Continuous
 62
    30
370
    13
100
AcDbCircle
 10
811.547911
 20
630.416741
 30
0.0
 40
54.22233265598181
100
AcDbArc
 50
359.37169
 51
72.284997
  0
ARC
  5
12F
330
1F
100
AcDbEntity
  8
1
  6
Continuous
 62
    30
370
    13
100
AcDbCircle
 10
811.547911
 20
630.416741
 30
0.0
 40
45.59605246071198
100
AcDbArc
 50
359.37169
 51
68.787312
  0
ARC
  5
130
330
1F
100
AcDbEntity
  8
1
  6
Continuous
 62
    30
370
    13
100
AcDbCircle
 10
811.547911
 20
630.416741
 30
0.0
 40
45.59605246071198
100
AcDbArc
 50
111.212688
 51
180.62831
  0
ARC
  5
131
330
1F
100
AcDbEntity
  8
1
  6
Continuous
 62
    30
370
    18
100
AcDbCircle
 10
829.069443
 20
670.087356
 30
0.0
 40
1.3125
100
AcDbArc
 50
0.0
 51
141.108744
  0
ARC
  5
132
330
1F
100
AcDbEntity
  8
1
  6
Continuous
 62
    30
370
    18
100
AcDbCircle
 10
829.069443
 20
670.087356
 30
0.0
 40
1.3125
100
AcDbArc
 50
218.891256
 51
0.0
  0
CIRCLE
  5
133
330
1F
100
AcDbEntity
  8
1
  6
Continuous
 62
    30
370
    18
100
AcDbCircle
 10
832.110411
 20
668.538914
 30
0.0
 40
1.3125
  0
ARC
  5
134
330
1F
100
AcDbEntity
  8
1
  6
Continuous
 62
    30
370
    18
100
AcDbCircle
 10
380.163895
 20
147.840966
 30
0.0
 40
52.82750032866775
100
AcDbArc
 50
138.476276
 51
161.80093
  0
ARC
  5
135
330
1F
100
AcDbEntity
  8
1
  6
Continuous
 62
    30
370
    18
100
AcDbCircle
 10
380.163895
 20
147.840966
 30
0.0
 40
52.82750032866775
100
AcDbArc
 50
198.19907
 51
221.523724
  0
ARC
  5
136
330
1F
100
AcDbEntity
  8
1
  6
Continuous
 62
    30
370
    18
100
AcDbCircle
 10
380.163895
 20
147.840966
 30
0.0
 40
52.82750032866775
100
AcDbArc
 50
318.476276
 51
341.80093
  0
ARC
  5
137
330
1F
100
AcDbEntity
  8
1
  6
Continuous
 62
    30
370
    18
100
AcDbCircle
 10
380.163895
 20
147.840966
 30
0.0
 40
52.82750032866775
100
AcDbArc
 50
18.19907
 51
41.523724
  0
ARC
  5
138
330
1F
100
AcDbEntity
  8
1
  6
Continuous
 62
    30
370
    18
100
AcDbCircle
 10
387.913895
 20
102.244914
 30
0.0
 40
8.75
100
AcDbArc
 50
279.646422
 51
0.0
  0
ARC
  5
139
330
1F
100
AcDbEntity
  8
1
  6
Continuous
 62
    30
370
    18
100
AcDbCircle
 10
387.913895
 20
193.437019
 30
0.0
 40
8.75
100
AcDbArc
 50
0.0
 51
80.353578
  0
ARC
  5
13A
330
1F
100
AcDbEntity
  8
1
  6
Continuous
 62
    30
370
    18
100
AcDbCircle
 10
372.413895
 20
193.437019
 30
0.0
 40
8.75
100
AcDbArc
 50
99.646422
 51
180.0
  0
ARC
  5
13B
330
1F
100
AcDbEntity
  8
1
  6
Continuous
 62
    30
370
    18
100
AcDbCircle
 10
372.413895
 20
102.244914
 30
0.0
 40
8.75
100
AcDbArc
 50
180.0
 51
260.353578
  0
ARC
  5
13C
330
1F
100
AcDbEntity
  8
1
  6
Continuous
 62
    30
370
    18
100
AcDbCircle
 10
380.163895
 20
147.840966
 30
0.0
 40
54.99999999999999
100
AcDbArc
 50
270.0
 51
279.646422
  0
ARC
  5
13D
330
1F
100
AcDbEntity
  8
1
  6
Continuous
 62
    30
370
    18
100
AcDbCircle
 10
380.163895
 20
147.840966
 30
0.0
 40
54.99999999999999
100
AcDbArc
 50
80.353578
 51
99.646422
  0
ARC
  5
13E
330
1F
100
AcDbEntity
  8
1
  6
Continuous
 62
    30
370
    18
100
AcDbCircle
 10
380.163895
 20
147.840966
 30
0.0
 40
54.99999999999999
100
AcDbArc
 50
260.353578
 51
270.0
  0
ARC
  5
13F
330
1F
100
AcDbEntity
  8
2
  6
Continuous
 62
    30
370
    18
100
AcDbCircle
 10
431.663895
 20
147.840966
 30
0.0
 40
16.5
100
AcDbArc
 50
269.999999
 51
90.0
  0
ARC
  5
140
330
1F
100
AcDbEntity
  8
2
  6
Continuous
 62
    30
370
    18
100
AcDbCircle
 10
328.663895
 20
147.840966
 30
0.0
 40
16.5
100
AcDbArc
 50
90.0
 51
270.000001
  0
ARC
  5
141
330
1F
100
AcDbEntity
  8
1
  6
Continuous
 62
    30
370
    13
100
AcDbCircle
 10
380.163895
 20
147.840966
 30
0.0
 40
44.07750032866775
100
AcDbArc
 50
138.476276
 51
158.017081
  0
ARC
  5
142
330
1F
100
AcDbEntity
  8
1
  6
Continuous
 62
    30
370
    13
100
AcDbCircle
 10
380.163895
 20
147.840966
 30
0.0
 40
44.07750032866775
100
AcDbArc
 50
201.982919
 51
221.523724
  0
ARC
  5
143
330
1F
100
AcDbEntity
  8
1
  6
Continuous
 62
    30
370
    13
100
AcDbCircle
 10
380.163895
 20
147.840966
 30
0.0
 40
44.07750032866775
100
AcDbArc
 50
318.476276
 51
338.017081
  0
ARC
  5
144
330
1F
100
AcDbEntity
  8
1
  6
Continuous
 62
    30
370
    13
100
AcDbCircle
 10
380.163895
 20
147.840966
 30
0.0
 40
44.07750032866775
100
AcDbArc
 50
21.982919
 51
41.523724
  0
ARC
  5
145
330
1F
100
AcDbEntity
  8
1
  6
Continuous
 62
   252
370
    18
100
AcDbCircle
 10
380.163895
 20
147.840966
 30
0.0
 40
55.0
100
AcDbArc
 50
279.64125
 51
342.57375
  0
ARC
  5
146
330
1F
100
AcDbEntity
  8
1
  6
Continuous
 62
   252
370
    18
100
AcDbCircle
 10
380.163895
 20
147.840966
 30
0.0
 40
55.0
100
AcDbArc
 50
197.420626
 51
260.353125
  0
ARC
  5
147
330
1F
100
AcDbEntity
  8
1
  6
Continuous
 62
   252
370
    18
100
AcDbCircle
 10
380.163895
 20
147.840966
 30
0.0
 40
55.0
100
AcDbArc
 50
99.646875
 51
162.579375
  0
ARC
  5
148
330
1F
100
AcDbEntity
  8
1
  6
Continuous
 62
   252
370
    18
100
AcDbCircle
 10
380.163895
 20
147.840966
 30
0.0
 40
55.0
100
AcDbArc
 50
17.42625
 51
80.35875
  0
ELLIPSE
  5
149
330
1F
100
AcDbEntity
  8
1
  6
Continuous
 62
    30
370
    13
100
AcDbEllipse
 10
387.913895
 20
552.916741
 30
0.0
 11
8.75
 21
0.0
 31
0.0
210
0.0
220
0.0
230
1.0
 40
0.010966
 41
4.880750810572293
 42
6.283185307179586
  0
ELLIPSE
  5
14A
330
1F
100
AcDbEntity
  8
1
  6
Continuous
 62
    30
370
    13
100
AcDbEllipse
 10
372.413895
 20
552.916741
 30
0.0
 11
-8.75
 21
0.0
 31
0.0
210
0.0
220
0.0
230
1.0
 40
0.010966
 41
0.0
 42
1.402434496607294
  0
ELLIPSE
  5
14B
330
1F
100
AcDbEntity
  8
1
  6
Continuous
 62
    30
370
    13
100
AcDbEllipse
 10
388.191604
 20
549.182145
 30
0.0
 11
-8.653764051637536
 21
-1.294166812503675
 31
0.0
210
0.0
220
0.0
230
1.0
 40
0.117705
 41
1.72958384447431
 42
3.141592653589793
  0
ELLIPSE
  5
14C
330
1F
100
AcDbEntity
  8
1
  6
Continuous
 62
    30
370
    13
100
AcDbEllipse
 10
372.136185
 20
549.182145
 30
0.0
 11
-8.653764051637527
 21
1.294166812503728
 31
0.0
210
0.0
220
0.0
230
1.0
 40
0.117705
 41
0.0
 42
1.412008809115481
  0
ELLIPSE
  5
14D
330
1F
100
AcDbEntity
  8
1
  6
Continuous
 62
    30
370
    13
100
AcDbEllipse
 10
347.163895
 20
527.666741
 30
0.0
 11
0.0
 21
-8.75
 31
0.0
210
0.0
220
0.0
230
1.0
 40
0.748681
 41
3.141592653589793
 42
4.804076213656753
  0
ELLIPSE
  5
14E
330
1F
100
AcDbEntity
  8
1
  6
Continuous
 62
    30
370
    13
100
AcDbEllipse
 10
413.163895
 20
527.666741
 30
0.0
 11
0.0
 21
-8.75
 31
0.0
210
0.0
220
0.0
230
1.0
 40
0.748681
 41
1.479109093522833
 42
3.141592653589793
  0
ELLIPSE
  5
14F
330
1F
100
AcDbEntity
  8
1
  6
Continuous
 62
    30
370
    13
100
AcDbEllipse
 10
766.197204
 20
626.182145
 30
0.0
 11
-8.687829705254432
 21
-1.041208438545663
 31
0.0
210
0.0
220
0.0
230
1.0
 40
0.146877
 41
4.694788105513899
 42
6.106796914629397
  0
ELLIPSE
  5
150
330
1F
100
AcDbEntity
  8
1
  6
Continuous
 62
    30
370
    13
100
AcDbEllipse
 10
856.898617
 20
626.182145
 30
0.0
 11
-8.687829705254428
 21
1.041208438545694
 31
0.0
210
0.0
220
0.0
230
1.0
 40
0.146877
 41
3.317981046139998
 42
4.729989855255482
  0
ELLIPSE
  5
151
330
1F
100
AcDbEntity
  8
1
  6
Continuous
 62
    30
370
    13
100
AcDbEllipse
 10
840.768212
 20
604.666741
 30
0.0
 11
0.0
 21
-8.75
 31
0.0
210
0.0
220
0.0
230
1.0
 40
0.66293
 41
1.479109093522833
 42
3.141592653589793
  0
ELLIPSE
  5
152
330
1F
100
AcDbEntity
  8
1
  6
Continuous
 62
    30
370
    13
100
AcDbEllipse
 10
782.327609
 20
604.666741
 30
0.0
 11
0.0
 21
-8.75
 31
0.0
210
0.0
220
0.0
230
1.0
 40
0.66293
 41
3.141592653589793
 42
4.804076213656753
  0
ELLIPSE
  5
153
330
1F
100
AcDbEntity
  8
1
  6
Continuous
 62
    30
370
    13
100
AcDbEllipse
 10
372.136185
 20
102.49026
 30
0.0
 11
5.471845743581358
 21
6.827986830570969
 31
0.0
210
0.0
220
0.0
230
1.0
 40
0.982127
 41
2.237598018297721
 42
3.113926015153138
  0
ELLIPSE
  5
154
330
1F
100
AcDbEntity
  8
1
  6
Continuous
 62
    30
370
    13
100
AcDbEllipse
 10
388.191604
 20
193.191673
 30
0.0
 11
-5.471845743581344
 21
-6.827986830570983
 31
0.0
210
0.0
220
0.0
230
1.0
 40
0.982127
 41
2.237598018297719
 42
3.113926015153137
  0
ELLIPSE
  5
155
330
1F
100
AcDbEntity
  8
1
  6
Continuous
 62
    30
370
    13
100
AcDbEllipse
 10
372.136185
 20
193.191673
 30
0.0
 11
-5.471845743581391
 21
6.827986830570943
 31
0.0
210
0.0
220
0.0
230
1.0
 40
0.982127
 41
0.0276666384366511
 42
0.9039946352920669
  0
ELLIPSE
  5
156
330
1F
100
AcDbEntity
  8
1
  6
Continuous
 62
    30
370
    13
100
AcDbEllipse
 10
388.191604
 20
102.49026
 30
0.0
 11
5.47184574358141
 21
-6.827986830570929
 31
0.0
210
0.0
220
0.0
230
1.0
 40
0.982127
 41
0.027666638436644
 42
0.9039946352920634
  0
SPLINE
  5
157
330
1F
100
AcDbEntity
  8
1
  6
Continuous
 62
    30
370
    18
100
AcDbSpline
210
0.0
220
0.0
230
1.0
 70
     8
 71
     3
 72
    10
 73
     6
 74
     0
 42
0.000000001
 43
0.0000000001
 40
0.0
 40
0.0
 40
0.0
 40
0.0
 40
0.5
 40
0.5
 40
1.0
 40
1.0
 40
1.0
 40
1.0
 10
396.663894835741
 20
552.9167405981447
 30
0.0
 10
396.663894835741
 20
552.5044216612839
 30
0.0
 10
396.6793264863716
 20
552.0949439147829
 30
0.0
 10
396.7400602272112
 20
551.2815035494349
 30
0.0
 10
396.7853646175166
 20
550.877541359396
 30
0.0
 10
396.8453683383673
 20
550.4763117517092
 30
0.0
  0
SPLINE
  5
158
330
1F
100
AcDbEntity
  8
1
  6
Continuous
 62
    30
370
    18
100
AcDbSpline
210
0.0
220
0.0
230
1.0
 70
     8
 71
     3
 72
    10
 73
     6
 74
     0
 42
0.000000001
 43
0.0000000001
 40
0.0
 40
0.0
 40
0.0
 40
0.0
 40
0.5
 40
0.5
 40
1.0
 40
1.0
 40
1.0
 40
1.0
 10
363.4824213331145
 20
550.4763117517091
 30
0.0
 10
363.5424250539652
 20
550.8775413593959
 30
0.0
 10
363.5877294442706
 20
551.2815035494348
 30
0.0
 10
363.6484631851102
 20
552.0949439147828
 30
0.0
 10
363.6638948357408
 20
552.5044216612838
 30
0.0
 10
363.6638948357408
 20
552.9167405981447
 30
0.0
  0
SPLINE
  5
159
330
1F
100
AcDbEntity
  8
1
  6
Continuous
 62
    30
370
    13
100
AcDbSpline
210
0.0
220
0.0
230
1.0
 70
     8
 71
     3
 72
    10
 73
     6
 74
     0
 42
0.000000001
 43
0.0000000001
 40
0.0
 40
0.0
 40
0.0
 40
0.0
 40
0.5
 40
0.5
 40
1.0
 40
1.0
 40
1.0
 40
1.0
 10
370.9476786195246
 20
552.8221460035501
 30
0.0
 10
370.9476786195246
 20
552.0752714009877
 30
0.0
 10
370.9198523311193
 20
551.3317713526333
 30
0.0
 10
370.8095788607998
 20
549.851407323296
 30
0.0
 10
370.7271298927369
 20
549.114543537158
 30
0.0
 10
370.617429542673
 20
548.3810052199466
 30
0.0
  0
SPLINE
  5
15A
330
1F
100
AcDbEntity
  8
1
  6
Continuous
 62
    30
370
    13
100
AcDbSpline
210
0.0
220
0.0
230
1.0
 70
     8
 71
     3
 72
    10
 73
     6
 74
     0
 42
0.000000001
 43
0.0000000001
 40
0.0
 40
0.0
 40
0.0
 40
0.0
 40
0.5
 40
0.5
 40
1.0
 40
1.0
 40
1.0
 40
1.0
 10
389.7103601288088
 20
548.3810052199467
 30
0.0
 10
389.6006597787449
 20
549.1145435371582
 30
0.0
 10
389.518210810682
 20
549.851407323296
 30
0.0
 10
389.4079373403625
 20
551.3317713526332
 30
0.0
 10
389.3801110519572
 20
552.0752714009877
 30
0.0
 10
389.3801110519572
 20
552.8221460035501
 30
0.0
  0
SPLINE
  5
15B
330
1F
100
AcDbEntity
  8
1
  6
Continuous
 62
    30
370
    18
100
AcDbSpline
210
0.0
220
0.0
230
1.0
 70
    24
 71
     3
 72
     8
 73
     4
 74
     0
 42
0.000000001
 43
0.0000000001
 40
0.0
 40
0.0
 40
0.0
 40
0.0
 40
1.0
 40
1.0
 40
1.0
 40
1.0
 10
363.163894835741
 20
580.8447508016328
 30
0.0
 10
363.163894835741
 20
580.9951161654269
 30
0.0
 10
363.163894835741
 20
581.145481529221
 30
0.0
 10
363.163894835741
 20
581.2958468930152
 30
0.0
  0
SPLINE
  5
15C
330
1F
100
AcDbEntity
  8
1
  6
Continuous
 62
    30
370
    18
100
AcDbSpline
210
0.0
220
0.0
230
1.0
 70
    24
 71
     3
 72
     8
 73
     4
 74
     0
 42
0.000000001
 43
0.0000000001
 40
0.0
 40
0.0
 40
0.0
 40
0.0
 40
1.0
 40
1.0
 40
1.0
 40
1.0
 10
363.163894835741
 20
581.2958468930152
 30
0.0
 10
363.163894835741
 20
581.3790212263485
 30
0.0
 10
363.163894835741
 20
581.4621955596818
 30
0.0
 10
363.163894835741
 20
581.5453698930152
 30
0.0
  0
SPLINE
  5
15D
330
1F
100
AcDbEntity
  8
1
  6
Continuous
 62
    30
370
    18
100
AcDbSpline
210
0.0
220
0.0
230
1.0
 70
    24
 71
     3
 72
     8
 73
     4
 74
     0
 42
0.000000001
 43
0.0000000001
 40
0.0
 40
0.0
 40
0.0
 40
0.0
 40
1.0
 40
1.0
 40
1.0
 40
1.0
 10
397.163894835741
 20
593.3350165452831
 30
0.0
 10
397.163894835741
 20
593.3348195933022
 30
0.0
 10
397.163894835741
 20
593.3346226413212
 30
0.0
 10
397.163894835741
 20
593.3344256893402
 30
0.0
  0
SPLINE
  5
15E
330
1F
100
AcDbEntity
  8
1
  6
Continuous
 62
    30
370
    18
100
AcDbSpline
210
0.0
220
0.0
230
1.0
 70
    24
 71
     3
 72
     8
 73
     4
 74
     0
 42
0.000000001
 43
0.0000000001
 40
0.0
 40
0.0
 40
0.0
 40
0.0
 40
1.0
 40
1.0
 40
1.0
 40
1.0
 10
397.163894835741
 20
593.3329013062039
 30
0.0
 10
397.163894835741
 20
593.3326938557165
 30
0.0
 10
397.163894835741
 20
593.332486405229
 30
0.0
 10
397.163894835741
 20
593.3322789547416
 30
0.0
  0
SPLINE
  5
15F
330
1F
100
AcDbEntity
  8
1
  6
Continuous
 62
    30
370
    18
100
AcDbSpline
210
0.0
220
0.0
230
1.0
 70
    24
 71
     3
 72
     8
 73
     4
 74
     0
 42
0.000000001
 43
0.0000000001
 40
0.0
 40
0.0
 40
0.0
 40
0.0
 40
1.0
 40
1.0
 40
1.0
 40
1.0
 10
397.163894835741
 20
593.3307470126806
 30
0.0
 10
397.163894835741
 20
593.3305378824322
 30
0.0
 10
397.163894835741
 20
593.3303287521837
 30
0.0
 10
397.163894835741
 20
593.3301196219353
 30
0.0
  0
SPLINE
  5
160
330
1F
100
AcDbEntity
  8
1
  6
Continuous
 62
    30
370
    18
100
AcDbSpline
210
0.0
220
0.0
230
1.0
 70
    24
 71
     3
 72
     8
 73
     4
 74
     0
 42
0.000000001
 43
0.0000000001
 40
0.0
 40
0.0
 40
0.0
 40
0.0
 40
1.0
 40
1.0
 40
1.0
 40
1.0
 10
397.163894835741
 20
593.3301196219353
 30
0.0
 10
397.163894835741
 20
593.0882399552686
 30
0.0
 10
397.163894835741
 20
592.846360288602
 30
0.0
 10
397.163894835741
 20
592.6044806219353
 30
0.0
  0
SPLINE
  5
161
330
1F
100
AcDbEntity
  8
1
  6
Continuous
 62
    30
370
    18
100
AcDbSpline
210
0.0
220
0.0
230
1.0
 70
    24
 71
     3
 72
    12
 73
     8
 74
     0
 42
0.000000001
 43
0.0000000001
 40
0.0
 40
0.0
 40
0.0
 40
0.0
 40
0.1665571972007487
 40
0.1665571972007487
 40
0.8261604592011993
 40
0.8261604592011993
 40
1.0
 40
1.0
 40
1.0
 40
1.0
 10
397.163894835741
 20
592.5744825675171
 30
0.0
 10
397.163894835741
 20
592.5743798420818
 30
0.0
 10
397.1638948357409
 20
592.5468153389518
 30
0.0
 10
397.163894835741
 20
592.2757098482684
 30
0.0
 10
397.163894835741
 20
591.8044785556536
 30
0.0
 10
397.163894835741
 20
590.8905285771268
 30
0.0
 10
397.163894835741
 20
590.6911646903302
 30
0.0
 10
397.163894835741
 20
590.4831085675141
 30
0.0
  0
SPLINE
  5
162
330
1F
100
AcDbEntity
  8
1
  6
Continuous
 62
    30
370
    18
100
AcDbSpline
210
0.0
220
0.0
230
1.0
 70
    24
 71
     3
 72
     8
 73
     4
 74
     0
 42
0.000000001
 43
0.0000000001
 40
0.0
 40
0.0
 40
0.0
 40
0.0
 40
1.0
 40
1.0
 40
1.0
 40
1.0
 10
363.1638948357409
 20
581.5760514695256
 30
0.0
 10
363.1638948357409
 20
581.609205026369
 30
0.0
 10
363.1638948357409
 20
581.7893057659156
 30
0.0
 10
363.1638948357409
 20
582.1182286637612
 30
0.0
  0
SPLINE
  5
163
330
1F
100
AcDbEntity
  8
1
  6
Continuous
 62
    30
370
    18
100
AcDbSpline
210
0.0
220
0.0
230
1.0
 70
    24
 71
     3
 72
     8
 73
     4
 74
     0
 42
0.000000001
 43
0.0000000001
 40
0.0
 40
0.0
 40
0.0
 40
0.0
 40
1.0
 40
1.0
 40
1.0
 40
1.0
 10
397.163894835741
 20
590.4042726705918
 30
0.0
 10
397.163894835741
 20
590.4045366003897
 30
0.0
 10
397.163894835741
 20
590.3173495827513
 30
0.0
 10
397.163894835741
 20
590.1423348654125
 30
0.0
  0
SPLINE
  5
164
330
1F
100
AcDbEntity
  8
1
  6
Continuous
 62
    30
370
    18
100
AcDbSpline
210
0.0
220
0.0
230
1.0
 70
    24
 71
     3
 72
     8
 73
     4
 74
     0
 42
0.000000001
 43
0.0000000001
 40
0.0
 40
0.0
 40
0.0
 40
0.0
 40
1.0
 40
1.0
 40
1.0
 40
1.0
 10
397.163894835741
 20
590.1423348654125
 30
0.0
 10
397.163894835741
 20
589.9296732766861
 30
0.0
 10
397.163894835741
 20
589.6343963716425
 30
0.0
 10
397.163894835741
 20
589.2569748654124
 30
0.0
  0
SPLINE
  5
165
330
1F
100
AcDbEntity
  8
1
  6
Continuous
 62
    30
370
    18
100
AcDbSpline
210
0.0
220
0.0
230
1.0
 70
    24
 71
     3
 72
    10
 73
     6
 74
     0
 42
0.000000001
 43
0.0000000001
 40
0.0
 40
0.0
 40
0.0
 40
0.0
 40
0.886460557370958
 40
0.886460557370958
 40
1.0
 40
1.0
 40
1.0
 40
1.0
 10
363.1638948357409
 20
589.2812349281133
 30
0.0
 10
363.1638948357409
 20
589.6631029572952
 30
0.0
 10
363.1638948357409
 20
589.9547928310258
 30
0.0
 10
363.1638948357409
 20
590.1827329388551
 30
0.0
 10
363.1638948357408
 20
590.206740630782
 30
0.0
 10
363.1638948357408
 20
590.2288769281156
 30
0.0
  0
SPLINE
  5
166
330
1F
100
AcDbEntity
  8
1
  6
Continuous
 62
    30
370
    18
100
AcDbSpline
210
0.0
220
0.0
230
1.0
 70
    24
 71
     3
 72
    10
 73
     6
 74
     0
 42
0.000000001
 43
0.0000000001
 40
0.0
 40
0.0
 40
0.0
 40
0.0
 40
0.3294987674609678
 40
0.3294987674609678
 40
1.0
 40
1.0
 40
1.0
 40
1.0
 10
363.1638948357409
 20
582.1182286637612
 30
0.0
 10
363.1638948357409
 20
582.4491915713123
 30
0.0
 10
363.1638948357409
 20
583.0236949710209
 30
0.0
 10
363.1638948357409
 20
585.5063867824945
 30
0.0
 10
363.1638948357409
 20
587.1710347021021
 30
0.0
 10
363.1638948357409
 20
588.8356826217098
 30
0.0
  0
SPLINE
  5
167
330
1F
100
AcDbEntity
  8
1
  6
Continuous
 62
    30
370
    18
100
AcDbSpline
210
0.0
220
0.0
230
1.0
 70
    24
 71
     3
 72
     8
 73
     4
 74
     0
 42
0.000000001
 43
0.0000000001
 40
0.0
 40
0.0
 40
0.0
 40
0.0
 40
1.0
 40
1.0
 40
1.0
 40
1.0
 10
363.1638948357409
 20
588.8356826217098
 30
0.0
 10
363.1638948357409
 20
588.9741183198514
 30
0.0
 10
363.1638948357409
 20
589.1125540179929
 30
0.0
 10
363.1638948357409
 20
589.2509897161344
 30
0.0
  0
SPLINE
  5
168
330
1F
100
AcDbEntity
  8
1
  6
Continuous
 62
    30
370
    18
100
AcDbSpline
210
0.0
220
0.0
230
1.0
 70
    24
 71
     3
 72
     8
 73
     4
 74
     0
 42
0.000000001
 43
0.0000000001
 40
0.0
 40
0.0
 40
0.0
 40
0.0
 40
1.0
 40
1.0
 40
1.0
 40
1.0
 10
397.163894835741
 20
588.8314714515875
 30
0.0
 10
397.163894835741
 20
586.169231234936
 30
0.0
 10
397.163894835741
 20
583.5069910182843
 30
0.0
 10
397.163894835741
 20
580.8447508016328
 30
0.0
  0
SPLINE
  5
169
330
1F
100
AcDbEntity
  8
1
  6
Continuous
 62
    30
370
    18
100
AcDbSpline
210
0.0
220
0.0
230
1.0
 70
    24
 71
     3
 72
     8
 73
     4
 74
     0
 42
0.000000001
 43
0.0000000001
 40
0.0
 40
0.0
 40
0.0
 40
0.0
 40
1.0
 40
1.0
 40
1.0
 40
1.0
 10
397.163894835741
 20
589.2421568514502
 30
0.0
 10
397.163894835741
 20
589.1052617181626
 30
0.0
 10
397.163894835741
 20
588.9683665848751
 30
0.0
 10
397.163894835741
 20
588.8314714515875
 30
0.0
  0
SPLINE
  5
16A
330
1F
100
AcDbEntity
  8
1
  6
Continuous
 62
    30
370
    18
100
AcDbSpline
210
0.0
220
0.0
230
1.0
 70
     8
 71
     3
 72
    61
 73
    57
 74
     0
 42
0.000000001
 43
0.0000000001
 40
0.0
 40
0.0
 40
0.0
 40
0.0
 40
0.0624999999999987
 40
0.0624999999999987
 40
0.1249999999999977
 40
0.1249999999999977
 40
0.1874999999999967
 40
0.1874999999999967
 40
0.2499999999999957
 40
0.2499999999999957
 40
0.2812499999999955
 40
0.2812499999999955
 40
0.2890624999999952
 40
0.2890624999999952
 40
0.296874999999995
 40
0.296874999999995
 40
0.312499999999995
 40
0.312499999999995
 40
0.3749999999999956
 40
0.3749999999999956
 40
0.4374999999999963
 40
0.4374999999999963
 40
0.499999999999997
 40
0.499999999999997
 40
0.5156249999999967
 40
0.5156249999999967
 40
0.5234374999999962
 40
0.5234374999999962
 40
0.5312499999999957
 40
0.5624999999999928
 40
0.5624999999999928
 40
0.6249999999999883
 40
0.6249999999999883
 40
0.6874999999999838
 40
0.6874999999999838
 40
0.7187499999999811
 40
0.7187499999999811
 40
0.726562499999981
 40
0.726562499999981
 40
0.7343749999999808
 40
0.7499999999999816
 40
0.7499999999999816
 40
0.812499999999987
 40
0.812499999999987
 40
0.8749999999999925
 40
0.8749999999999925
 40
0.9062499999999944
 40
0.9062499999999944
 40
0.9140624999999953
 40
0.9140624999999953
 40
0.9218749999999962
 40
0.9218749999999962
 40
0.9374999999999964
 40
0.9374999999999964
 40
0.9687499999999982
 40
1.0
 40
1.0
 40
1.0
 40
1.0
 10
347.1638948357409
 20
536.4167405981447
 30
0.0
 10
347.4737739606057
 20
536.4167405981447
 30
0.0
 10
347.7932345398789
 20
536.4254500465823
 30
0.0
 10
348.4516130733809
 20
536.4637617110342
 30
0.0
 10
348.7905316095839
 20
536.4933579365371
 30
0.0
 10
349.4881727190854
 20
536.5774879357796
 30
0.0
 10
349.8468963341709
 20
536.6320132705271
 30
0.0
 10
350.5845223935182
 20
536.7708386943671
 30
0.0
 10
350.963426725188
 20
536.855126515145
 30
0.0
 10
351.5471879055573
 20
537.0083398536754
 30
0.0
 10
351.7443421350612
 20
537.0638842641214
 30
0.0
 10
351.9940172347506
 20
537.1394582094172
 30
0.0
 10
352.0441138517635
 20
537.1548804311125
 30
0.0
 10
352.144630781262
 20
537.1863546203493
 30
0.0
 10
352.1950741802894
 20
537.2024142333039
 30
0.0
 10
352.3466064760963
 20
537.251467704132
 30
0.0
 10
352.4479579946022
 20
537.285354065347
 30
0.0
 10
352.9562857187217
 20
537.4608904975578
 30
0.0
 10
353.3679914712724
 20
537.6208252063108
 30
0.0
 10
354.1991621521842
 20
537.9848667531331
 30
0.0
 10
354.6186343170534
 20
538.1889646057334
 30
0.0
 10
355.462419147985
 20
538.64736707805
 30
0.0
 10
355.8867424608105
 20
538.9016584279758
 30
0.0
 10
356.4178080962445
 20
539.2554311147899
 30
0.0
 10
356.5240516966267
 20
539.3279846541238
 30
0.0
 10
356.6834097666064
 20
539.4396102796137
 30
0.0
 10
356.7364859145647
 20
539.4772561039317
 30
0.0
 10
356.8423034327409
 20
539.5532586244193
 30
0.0
 10
357.1061851278538
 20
539.7451645036608
 30
0.0
 10
357.3666445380674
 20
539.9466095838768
 30
0.0
 10
357.9842726979463
 20
540.4487406389898
 30
0.0
 10
358.3860777936048
 20
540.8083638785005
 30
0.0
 10
359.1645925642265
 20
541.5794820602921
 30
0.0
 10
359.5413122333799
 20
541.9909664777126
 30
0.0
 10
360.0831395358078
 20
542.6491280825054
 30
0.0
 10
360.2598667525762
 20
542.8753433146314
 30
0.0
 10
360.4753996621162
 20
543.1669150613399
 30
0.0
 10
360.5182623055182
 20
543.2257046660822
 30
0.0
 10
360.6033214076258
 20
543.3440125975542
 30
0.0
 10
360.7297535659992
 20
543.5223458596273
 30
0.0
 10
360.8526991120488
 20
543.7032761581617
 30
0.0
 10
361.254688029386
 20
544.3120802792071
 30
0.0
 10
361.5512549985829
 20
544.8173383101323
 30
0.0
 10
362.09180552058
 20
545.8630938488482
 30
0.0
 10
362.3358034195278
 20
546.4035847893659
 30
0.0
 10
362.6597299885776
 20
547.2405979746579
 30
0.0
 10
362.7606847494666
 20
547.5239901618576
 30
0.0
 10
362.8777407543895
 20
547.883772065556
 30
0.0
 10
362.9006948149784
 20
547.9560057428156
 30
0.0
 10
362.9456784899362
 20
548.1010299980795
 30
0.0
 10
362.9676880686339
 20
548.1737575055812
 30
0.0
 10
363.0321826321378
 20
548.3923048246772
 30
0.0
 10
363.0731690002841
 20
548.5386027443097
 30
0.0
 10
363.1900838119952
 20
548.9792732730077
 30
0.0
 10
363.3298596796768
 20
549.5715683025531
 30
0.0
 10
363.4370884285386
 20
550.1731821580702
 30
0.0
 10
363.4824213331145
 20
550.4763117517091
 30
0.0
  0
SPLINE
  5
16B
330
1F
100
AcDbEntity
  8
1
  6
Continuous
 62
    30
370
    13
100
AcDbSpline
210
0.0
220
0.0
230
1.0
 70
     8
 71
     3
 72
    62
 73
    58
 74
     0
 42
0.000000001
 43
0.0000000001
 40
0.0
 40
0.0
 40
0.0
 40
0.0
 40
0.0312499999999998
 40
0.0312499999999998
 40
0.0624999999999995
 40
0.0624999999999995
 40
0.0781249999999994
 40
0.0781249999999994
 40
0.0859374999999993
 40
0.0859374999999993
 40
0.0937499999999992
 40
0.1250000000000014
 40
0.1250000000000014
 40
0.1562500000000037
 40
0.1562500000000037
 40
0.1875000000000059
 40
0.1875000000000059
 40
0.2500000000000103
 40
0.2500000000000103
 40
0.2656250000000114
 40
0.2734375000000116
 40
0.2734375000000116
 40
0.2812500000000118
 40
0.2812500000000118
 40
0.3125000000000113
 40
0.3125000000000113
 40
0.3750000000000104
 40
0.3750000000000104
 40
0.4375000000000094
 40
0.4375000000000094
 40
0.4687500000000089
 40
0.4687500000000089
 40
0.4843750000000088
 40
0.4921875000000087
 40
0.4921875000000087
 40
0.5000000000000085
 40
0.5000000000000085
 40
0.562500000000008
 40
0.562500000000008
 40
0.6250000000000073
 40
0.6250000000000073
 40
0.6875000000000068
 40
0.6875000000000068
 40
0.7187500000000066
 40
0.7187500000000066
 40
0.7265625000000064
 40
0.7265625000000064
 40
0.7343750000000062
 40
0.7500000000000059
 40
0.7500000000000059
 40
0.8125000000000044
 40
0.8125000000000044
 40
0.8750000000000029
 40
0.8750000000000029
 40
0.9375000000000014
 40
0.9375000000000014
 40
1.0
 40
1.0
 40
1.0
 40
1.0
 10
370.617429542673
 20
548.3810052199466
 30
0.0
 10
370.5330412658539
 20
547.9144488493087
 30
0.0
 10
370.433542461789
 20
547.4523912294464
 30
0.0
 10
370.2051395922515
 20
546.5371112565628
 30
0.0
 10
370.076234294338
 20
546.0838892582092
 30
0.0
 10
369.8612314776493
 20
545.4106361398553
 30
0.0
 10
369.7859544196986
 20
545.1873158225712
 30
0.0
 10
369.667659072624
 20
544.853982013145
 30
0.0
 10
369.6273093182941
 20
544.7430885502882
 30
0.0
 10
369.544917857053
 20
544.522110660021
 30
0.0
 10
369.3349256956084
 20
543.9722629805341
 30
0.0
 10
369.1052045617341
 20
543.4352218077195
 30
0.0
 10
368.7137819439218
 20
542.5916708551671
 30
0.0
 10
368.5061342911164
 20
542.1777540581103
 30
0.0
 10
368.0680950835267
 20
541.3651364928425
 30
0.0
 10
367.8377021151472
 20
540.9664365872627
 30
0.0
 10
367.1137893432578
 20
539.7926282659971
 30
0.0
 10
366.5876026520294
 20
539.0397597168605
 30
0.0
 10
365.8788195762591
 20
538.1348615380173
 30
0.0
 10
365.6623478631091
 20
537.8661123209691
 30
0.0
 10
365.4401944889935
 20
537.6014359271896
 30
0.0
 10
365.29083698523
 20
537.425889916417
 30
0.0
 10
365.2154674911203
 20
537.3384976985915
 30
0.0
 10
364.8364287899109
 20
536.9048556219524
 30
0.0
 10
364.5262659493767
 20
536.5685966119278
 30
0.0
 10
363.5767925377829
 20
535.590124760655
 30
0.0
 10
362.918554260957
 20
534.9781447579074
 30
0.0
 10
361.5594798802397
 20
533.828177544605
 30
0.0
 10
360.8586200918516
 20
533.2902169392901
 30
0.0
 10
359.7800991435387
 20
532.535329682905
 30
0.0
 10
359.4160435473788
 20
532.2923895655645
 30
0.0
 10
358.8636561047488
 20
531.9406817792365
 30
0.0
 10
358.5858857099967
 20
531.7680044396977
 30
0.0
 10
358.3058421996607
 20
531.6000379265735
 30
0.0
 10
358.1186512726715
 20
531.4891016146283
 30
0.0
 10
358.024771109166
 20
531.434133387082
 30
0.0
 10
357.1797343641132
 20
530.9452652175373
 30
0.0
 10
356.4245682291919
 20
530.5502304141849
 30
0.0
 10
354.911263936818
 20
529.8305320894087
 30
0.0
 10
354.1531129904157
 20
529.5058932700209
 30
0.0
 10
352.6380657805988
 20
528.9202604126659
 30
0.0
 10
351.8811607563957
 20
528.6592823453727
 30
0.0
 10
350.7495438189021
 20
528.3114526560813
 30
0.0
 10
350.3729585154722
 20
528.2027908268566
 30
0.0
 10
349.9032775482274
 20
528.0756905412084
 30
0.0
 10
349.8093532352922
 20
528.0506965683277
 30
0.0
 10
349.6219431662225
 20
528.0016571900278
 30
0.0
 10
349.3414076258944
 20
527.9294987551621
 30
0.0
 10
349.0626229129732
 20
527.8614652720851
 30
0.0
 10
348.1372836303032
 20
527.6435282503999
 30
0.0
 10
347.4096336130343
 20
527.4974144663175
 30
0.0
 10
345.9808440292253
 20
527.2543091503668
 30
0.0
 10
345.2797011506924
 20
527.157332357362
 30
0.0
 10
343.9051565976291
 20
527.0063511650222
 30
0.0
 10
343.2317523099797
 20
526.9523573709907
 30
0.0
 10
341.913974726469
 20
526.8819781481488
 30
0.0
 10
341.2695991007819
 20
526.8656008788859
 30
0.0
 10
340.6404497131309
 20
526.8656008788859
 30
0.0
  0
SPLINE
  5
16C
330
1F
100
AcDbEntity
  8
1
  6
Continuous
 62
    30
370
    18
100
AcDbSpline
210
0.0
220
0.0
230
1.0
 70
     8
 71
     3
 72
    58
 73
    54
 74
     0
 42
0.000000001
 43
0.0000000001
 40
0.0
 40
0.0
 40
0.0
 40
0.0
 40
0.031250000000007
 40
0.031250000000007
 40
0.062500000000014
 40
0.062500000000014
 40
0.1250000000000268
 40
0.1250000000000268
 40
0.1875000000000397
 40
0.1875000000000397
 40
0.1953125000000401
 40
0.1953125000000401
 40
0.2031250000000406
 40
0.2187500000000414
 40
0.250000000000042
 40
0.250000000000042
 40
0.3125000000000433
 40
0.3125000000000433
 40
0.3750000000000446
 40
0.3750000000000446
 40
0.3828125000000442
 40
0.3828125000000442
 40
0.3906250000000439
 40
0.3906250000000439
 40
0.4062500000000437
 40
0.4375000000000432
 40
0.4375000000000432
 40
0.5000000000000411
 40
0.5000000000000411
 40
0.5625000000000391
 40
0.5625000000000391
 40
0.5781250000000385
 40
0.585937500000038
 40
0.585937500000038
 40
0.5937500000000374
 40
0.5937500000000374
 40
0.6250000000000351
 40
0.6250000000000351
 40
0.6875000000000302
 40
0.6875000000000302
 40
0.7500000000000253
 40
0.7500000000000253
 40
0.8125000000000204
 40
0.8125000000000204
 40
0.8203125000000195
 40
0.8203125000000195
 40
0.8281250000000188
 40
0.8437500000000172
 40
0.8750000000000135
 40
0.8750000000000135
 40
0.937500000000007
 40
0.937500000000007
 40
1.0
 40
1.0
 40
1.0
 40
1.0
 10
396.8453683383673
 20
550.4763117517092
 30
0.0
 10
396.8906550853845
 20
550.1734908019164
 30
0.0
 10
396.9440838371779
 20
549.8738043501761
 30
0.0
 10
397.066683045792
 20
549.2806022031109
 30
0.0
 10
397.1358543702053
 20
548.9870868487058
 30
0.0
 10
397.3663732451733
 20
548.1157666743607
 30
0.0
 10
397.55067927777
 20
547.5471565078715
 30
0.0
 10
397.9785888422171
 20
546.4351192542813
 30
0.0
 10
398.2222030604254
 20
545.8916937293234
 30
0.0
 10
398.5293086693002
 20
545.2954256568651
 30
0.0
 10
398.5639020676006
 20
545.2293652762455
 30
0.0
 10
398.6337746747217
 20
545.0981002895082
 30
0.0
 10
398.7396934127837
 20
544.9023266088827
 30
0.0
 10
398.9944787986236
 20
544.4533470943036
 30
0.0
 10
399.2255435068107
 20
544.081795574142
 30
0.0
 10
399.7035454546152
 20
543.3561673976825
 30
0.0
 10
400.0433561033478
 20
542.8956919571806
 30
0.0
 10
400.7604238797029
 20
542.0206926570095
 30
0.0
 10
401.1376917402301
 20
541.6061774303239
 30
0.0
 10
401.5807782699665
 20
541.1657308809016
 30
0.0
 10
401.6302695118296
 20
541.1171521881173
 30
0.0
 10
401.7297627833312
 20
541.0207150447727
 30
0.0
 10
401.779789839098
 20
540.9728338269259
 30
0.0
 10
401.9301394715693
 20
540.8307254337255
 30
0.0
 10
402.2323431755501
 20
540.552226025089
 30
0.0
 10
402.5386048209552
 20
540.290437518439
 30
0.0
 10
403.1554366373093
 20
539.7880683908802
 30
0.0
 10
403.5723741716859
 20
539.4814087322003
 30
0.0
 10
404.4126097613931
 20
538.9195830101002
 30
0.0
 10
404.8359164213109
 20
538.664425489018
 30
0.0
 10
405.3663734070218
 20
538.374964005471
 30
0.0
 10
405.5256122508666
 20
538.2903389628609
 30
0.0
 10
405.6849358184721
 20
538.2089634174056
 30
0.0
 10
405.7911630677096
 20
538.1554275177674
 30
0.0
 10
405.8443151156025
 20
538.1290008853009
 30
0.0
 10
406.1096270316199
 20
537.9988588699575
 30
0.0
 10
406.3203262716693
 20
537.901159002911
 30
0.0
 10
406.9474225476971
 20
537.6257642516499
 30
0.0
 10
407.3588029455824
 20
537.4657307936088
 30
0.0
 10
408.16678576432
 20
537.1858252795319
 30
0.0
 10
408.5633945690861
 20
537.0659664929645
 30
0.0
 10
409.3408527011675
 20
536.8607139640669
 30
0.0
 10
409.7217061618568
 20
536.7753294630951
 30
0.0
 10
410.1408935340467
 20
536.6959603992887
 30
0.0
 10
410.1873500633777
 20
536.6873723968916
 30
0.0
 10
410.2798975912855
 20
536.6706712000503
 30
0.0
 10
410.4182065464754
 20
536.6463246316437
 30
0.0
 10
410.7373567276265
 20
536.5943363306234
 30
0.0
 10
411.0048459519592
 20
536.5576507159134
 30
0.0
 10
411.5318683381799
 20
536.4938375374437
 30
0.0
 10
411.872611589237
 20
536.4640154542222
 30
0.0
 10
412.533536751972
 20
536.4254633349856
 30
0.0
 10
412.8537188359211
 20
536.4167405981447
 30
0.0
 10
413.163894835741
 20
536.4167405981447
 30
0.0
  0
SPLINE
  5
16D
330
1F
100
AcDbEntity
  8
1
  6
Continuous
 62
    30
370
    13
100
AcDbSpline
210
0.0
220
0.0
230
1.0
 70
     8
 71
     3
 72
    64
 73
    60
 74
     0
 42
0.000000001
 43
0.0000000001
 40
0.0
 40
0.0
 40
0.0
 40
0.0
 40
0.0625000000000033
 40
0.0625000000000033
 40
0.1250000000000065
 40
0.1250000000000065
 40
0.156250000000008
 40
0.156250000000008
 40
0.1640625000000082
 40
0.1640625000000082
 40
0.1718750000000084
 40
0.1718750000000084
 40
0.1875000000000087
 40
0.1875000000000087
 40
0.2500000000000102
 40
0.2500000000000102
 40
0.3125000000000117
 40
0.3125000000000117
 40
0.3750000000000131
 40
0.3750000000000131
 40
0.3906250000000132
 40
0.3906250000000132
 40
0.3984375000000133
 40
0.3984375000000133
 40
0.4062500000000133
 40
0.4375000000000127
 40
0.4375000000000127
 40
0.5000000000000114
 40
0.5000000000000114
 40
0.5625000000000102
 40
0.5625000000000102
 40
0.5937500000000099
 40
0.5937500000000099
 40
0.6015625000000098
 40
0.6015625000000098
 40
0.6093750000000095
 40
0.6093750000000095
 40
0.6250000000000095
 40
0.6250000000000095
 40
0.6875000000000091
 40
0.6875000000000091
 40
0.7500000000000087
 40
0.7500000000000087
 40
0.7812500000000089
 40
0.7812500000000089
 40
0.7968750000000091
 40
0.8046875000000087
 40
0.8046875000000087
 40
0.8125000000000083
 40
0.8125000000000083
 40
0.843750000000007
 40
0.8750000000000056
 40
0.9062500000000042
 40
0.9062500000000042
 40
0.9375000000000029
 40
0.9375000000000029
 40
0.9687500000000014
 40
0.9687500000000014
 40
1.0
 40
1.0
 40
1.0
 40
1.0
 10
419.687339958351
 20
526.865600878886
 30
0.0
 10
419.0579178394868
 20
526.865600878886
 30
0.0
 10
418.4121441704717
 20
526.8819867360756
 30
0.0
 10
417.0888861512733
 20
526.952820482765
 30
0.0
 10
416.4113999087779
 20
527.0072587226097
 30
0.0
 10
415.3720132301008
 20
527.1219213686363
 30
0.0
 10
415.0216904175235
 20
527.1656492558319
 30
0.0
 10
414.5790205500043
 20
527.227714541707
 30
0.0
 10
414.490248247346
 20
527.2404980410727
 30
0.0
 10
414.3122284265088
 20
527.2668196776099
 30
0.0
 10
414.2229596432364
 20
527.2803611398288
 30
0.0
 10
413.9545899241827
 20
527.3221155578458
 30
0.0
 10
413.7750832625515
 20
527.3514332423797
 30
0.0
 10
412.8746792931107
 20
527.5056229213866
 30
0.0
 10
412.1451661146992
 20
527.653268238283
 30
0.0
 10
410.6702858757718
 20
528.0025665535369
 30
0.0
 10
409.9249136213174
 20
528.204207068539
 30
0.0
 10
408.4210147258409
 20
528.6678705983308
 30
0.0
 10
407.6624810283001
 20
528.9298756122753
 30
0.0
 10
406.7080056025331
 20
529.2999923591829
 30
0.0
 10
406.5167963071981
 20
529.3761505308877
 30
0.0
 10
406.2295511298141
 20
529.4936958070564
 30
0.0
 10
406.1337656499728
 20
529.5334153360648
 30
0.0
 10
405.9424475812734
 20
529.6138080132699
 30
0.0
 10
405.4645596970813
 20
529.817266116928
 30
0.0
 10
404.988815288516
 20
530.0331999182383
 30
0.0
 10
403.8520193874967
 20
530.5762244607596
 30
0.0
 10
403.1007853845936
 20
530.9712415035725
 30
0.0
 10
401.6167202056694
 20
531.8326111423402
 30
0.0
 10
400.8838743494904
 20
532.2989425301637
 30
0.0
 10
399.8029602273671
 20
533.0571573038782
 30
0.0
 10
399.4457233565452
 20
533.3196966197859
 30
0.0
 10
399.0035708407842
 20
533.6608050363699
 30
0.0
 10
398.9153602759372
 20
533.7296738575945
 30
0.0
 10
398.7393940841761
 20
533.868724629499
 30
0.0
 10
398.6516144568882
 20
533.9389272619569
 30
0.0
 10
398.3897032297114
 20
534.1509423837429
 30
0.0
 10
398.2167651570521
 20
534.2943445032818
 30
0.0
 10
397.3606227074185
 20
535.0217191045713
 30
0.0
 10
396.7030083381794
 20
535.636724009624
 30
0.0
 10
395.4483124247532
 20
536.935649963754
 30
0.0
 10
394.8512061754195
 20
537.6195502629978
 30
0.0
 10
394.0066788250915
 20
538.7004671091088
 30
0.0
 10
393.7337075123945
 20
539.0699665413122
 30
0.0
 10
393.3379569701011
 20
539.6386098047631
 30
0.0
 10
393.1435104628152
 20
539.9265320749125
 30
0.0
 10
392.9543977178932
 20
540.2199897135314
 30
0.0
 10
392.8295307398703
 20
540.4168748184208
 30
0.0
 10
392.7676856570777
 20
540.5159694327734
 30
0.0
 10
392.4626432923345
 20
541.0127701615596
 30
0.0
 10
391.9995300119187
 20
541.8189444857271
 30
0.0
 10
391.3805043140833
 20
543.0618338476903
 30
0.0
 10
391.0191070276096
 20
543.9128621675868
 30
0.0
 10
390.6839698102987
 20
544.7752152096135
 30
0.0
 10
390.5295305036473
 20
545.2120537866417
 30
0.0
 10
390.2477464493755
 20
546.0972723532983
 30
0.0
 10
390.1204001145804
 20
546.545651680329
 30
0.0
 10
389.8938925486858
 20
547.4542938361557
 30
0.0
 10
389.7947290790841
 20
547.9145556997198
 30
0.0
 10
389.7103601288087
 20
548.3810052199467
 30
0.0
  0
SPLINE
  5
16E
330
1F
100
AcDbEntity
  8
1
  6
Continuous
 62
    30
370
    13
100
AcDbSpline
210
0.0
220
0.0
230
1.0
 70
     8
 71
     3
 72
    10
 73
     6
 74
     0
 42
0.000000001
 43
0.0000000001
 40
0.0
 40
0.0
 40
0.0
 40
0.0
 40
0.5
 40
0.5
 40
1.0
 40
1.0
 40
1.0
 40
1.0
 10
757.6173407549085
 20
625.3810052199467
 30
0.0
 10
757.5294285476266
 20
626.1145435371582
 30
0.0
 10
757.4615131554914
 20
626.851407323296
 30
0.0
 10
757.3653137754401
 20
628.3317713526332
 30
0.0
 10
757.3370288327353
 20
629.0752714009877
 30
0.0
 10
757.328838216748
 20
629.8221460035501
 30
0.0
  0
SPLINE
  5
16F
330
1F
100
AcDbEntity
  8
1
  6
Continuous
 62
    30
370
    13
100
AcDbSpline
210
0.0
220
0.0
230
1.0
 70
     8
 71
     3
 72
    10
 73
     6
 74
     0
 42
0.000000001
 43
0.0000000001
 40
0.0
 40
0.0
 40
0.0
 40
0.0
 40
0.5
 40
0.5
 40
1.0
 40
1.0
 40
1.0
 40
1.0
 10
865.7669830906627
 20
629.8221460035501
 30
0.0
 10
865.7587924746753
 20
629.0752714009877
 30
0.0
 10
865.7305075319706
 20
628.3317713526333
 30
0.0
 10
865.6343081519192
 20
626.851407323296
 30
0.0
 10
865.566392759784
 20
626.114543537158
 30
0.0
 10
865.4784805525022
 20
625.3810052199466
 30
0.0
  0
SPLINE
  5
170
330
1F
100
AcDbEntity
  8
1
  6
Continuous
 62
    30
370
    13
100
AcDbSpline
210
0.0
220
0.0
230
1.0
 70
     8
 71
     3
 72
    10
 73
     6
 74
     0
 42
0.000000001
 43
0.0000000001
 40
0.0
 40
0.0
 40
0.0
 40
0.0
 40
0.5
 40
0.5
 40
1.0
 40
1.0
 40
1.0
 40
1.0
 10
856.8986171595118
 20
627.4763117517091
 30
0.0
 10
856.9722034297671
 20
627.8775413593959
 30
0.0
 10
857.029297279934
 20
628.2815035494348
 30
0.0
 10
857.1103452629901
 20
629.0949439147828
 30
0.0
 10
857.1343019888617
 20
629.5044216612838
 30
0.0
 10
857.1412215666013
 20
629.9167405981447
 30
0.0
  0
SPLINE
  5
171
330
1F
100
AcDbEntity
  8
1
  6
Continuous
 62
    30
370
    13
100
AcDbSpline
210
0.0
220
0.0
230
1.0
 70
     8
 71
     3
 72
    10
 73
     6
 74
     0
 42
0.000000001
 43
0.0000000001
 40
0.0
 40
0.0
 40
0.0
 40
0.0
 40
0.5
 40
0.5
 40
1.0
 40
1.0
 40
1.0
 40
1.0
 10
765.9545997408093
 20
629.9167405981447
 30
0.0
 10
765.9615193185489
 20
629.5044216612839
 30
0.0
 10
765.9854760444206
 20
629.0949439147829
 30
0.0
 10
766.0665240274767
 20
628.2815035494349
 30
0.0
 10
766.1236178776435
 20
627.877541359396
 30
0.0
 10
766.1972041478988
 20
627.4763117517092
 30
0.0
  0
SPLINE
  5
172
330
1F
100
AcDbEntity
  8
1
  6
Continuous
 62
    30
370
    18
100
AcDbSpline
210
0.0
220
0.0
230
1.0
 70
     8
 71
     3
 72
     8
 73
     4
 74
     0
 42
0.000000001
 43
0.0000000001
 40
0.0
 40
0.0
 40
0.0
 40
0.0
 40
1.0
 40
1.0
 40
1.0
 40
1.0
 10
795.0326850095474
 20
666.5405451501586
 30
0.0
 10
794.7905082379744
 20
666.2561172895628
 30
0.0
 10
794.6402986507131
 20
665.9119262317785
 30
0.0
 10
794.5826996349799
 20
665.508263416539
 30
0.0
  0
SPLINE
  5
173
330
1F
100
AcDbEntity
  8
1
  6
Continuous
 62
    30
370
    18
100
AcDbSpline
210
0.0
220
0.0
230
1.0
 70
    24
 71
     3
 72
     8
 73
     4
 74
     0
 42
0.000000001
 43
0.0000000001
 40
0.0
 40
0.0
 40
0.0
 40
0.0
 40
1.0
 40
1.0
 40
1.0
 40
1.0
 10
794.5826996349799
 20
665.508263416539
 30
0.0
 10
794.5750924684455
 20
665.5048175436187
 30
0.0
 10
794.567485301911
 20
665.5013716706984
 30
0.0
 10
794.5598781353766
 20
665.4979257977782
 30
0.0
  0
SPLINE
  5
174
330
1F
100
AcDbEntity
  8
1
  6
Continuous
 62
    30
370
    18
100
AcDbSpline
210
0.0
220
0.0
230
1.0
 70
    24
 71
     3
 72
     8
 73
     4
 74
     0
 42
0.000000001
 43
0.0000000001
 40
0.0
 40
0.0
 40
0.0
 40
0.0
 40
1.0
 40
1.0
 40
1.0
 40
1.0
 10
794.5598781353766
 20
665.4979257977782
 30
0.0
 10
794.4475049049202
 20
665.7460028156688
 30
0.0
 10
794.3351316744638
 20
665.9940798335596
 30
0.0
 10
794.2227584440074
 20
666.2421568514502
 30
0.0
  0
SPLINE
  5
175
330
1F
100
AcDbEntity
  8
1
  6
Continuous
 62
    30
370
    18
100
AcDbSpline
210
0.0
220
0.0
230
1.0
 70
    24
 71
     3
 72
     8
 73
     4
 74
     0
 42
0.000000001
 43
0.0000000001
 40
0.0
 40
0.0
 40
0.0
 40
0.0
 40
1.0
 40
1.0
 40
1.0
 40
1.0
 10
794.2227584440074
 20
666.2421568514502
 30
0.0
 10
793.9205464644123
 20
666.1052617181626
 30
0.0
 10
793.6183344848172
 20
665.9683665848751
 30
0.0
 10
793.3161225052221
 20
665.8314714515875
 30
0.0
  0
SPLINE
  5
176
330
1F
100
AcDbEntity
  8
1
  6
Continuous
 62
    30
370
    18
100
AcDbSpline
210
0.0
220
0.0
230
1.0
 70
    24
 71
     3
 72
     8
 73
     4
 74
     0
 42
0.000000001
 43
0.0000000001
 40
0.0
 40
0.0
 40
0.0
 40
0.0
 40
1.0
 40
1.0
 40
1.0
 40
1.0
 10
793.3161225052221
 20
665.8314714515875
 30
0.0
 10
793.8933881263904
 20
664.5570902377648
 30
0.0
 10
794.4706537475586
 20
663.2827090239421
 30
0.0
 10
795.0479193687268
 20
662.0083278101192
 30
0.0
  0
SPLINE
  5
177
330
1F
100
AcDbEntity
  8
1
  6
Continuous
 62
    30
370
    18
100
AcDbSpline
210
0.0
220
0.0
230
1.0
 70
    24
 71
     3
 72
     8
 73
     4
 74
     0
 42
0.000000001
 43
0.0000000001
 40
0.0
 40
0.0
 40
0.0
 40
0.0
 40
1.0
 40
1.0
 40
1.0
 40
1.0
 10
828.0479473806029
 20
662.00632478419
 30
0.0
 10
828.624450307005
 20
663.2827773966966
 30
0.0
 10
829.2009532334068
 20
664.5592300092032
 30
0.0
 10
829.7774561598088
 20
665.8356826217098
 30
0.0
  0
SPLINE
  5
178
330
1F
100
AcDbEntity
  8
1
  6
Continuous
 62
    30
370
    18
100
AcDbSpline
210
0.0
220
0.0
230
1.0
 70
    24
 71
     3
 72
     8
 73
     4
 74
     0
 42
0.000000001
 43
0.0000000001
 40
0.0
 40
0.0
 40
0.0
 40
0.0
 40
1.0
 40
1.0
 40
1.0
 40
1.0
 10
829.7774561598088
 20
665.8356826217098
 30
0.0
 10
829.470941482321
 20
665.9741183198514
 30
0.0
 10
829.164426804833
 20
666.1125540179929
 30
0.0
 10
828.8579121273451
 20
666.2509897161344
 30
0.0
  0
SPLINE
  5
179
330
1F
100
AcDbEntity
  8
1
  6
Continuous
 62
    30
370
    18
100
AcDbSpline
210
0.0
220
0.0
230
1.0
 70
    24
 71
     3
 72
     8
 73
     4
 74
     0
 42
0.000000001
 43
0.0000000001
 40
0.0
 40
0.0
 40
0.0
 40
0.0
 40
1.0
 40
1.0
 40
1.0
 40
1.0
 10
828.8579121273451
 20
666.2509897161344
 30
0.0
 10
828.7537985194064
 20
666.020468619424
 30
0.0
 10
828.6496849114676
 20
665.7899475227136
 30
0.0
 10
828.5455713035288
 20
665.5594264260033
 30
0.0
  0
SPLINE
  5
17A
330
1F
100
AcDbEntity
  8
1
  6
Continuous
 62
    30
370
    18
100
AcDbSpline
210
0.0
220
0.0
230
1.0
 70
    24
 71
     3
 72
     8
 73
     4
 74
     0
 42
0.000000001
 43
0.0000000001
 40
0.0
 40
0.0
 40
0.0
 40
0.0
 40
1.0
 40
1.0
 40
1.0
 40
1.0
 10
828.5455713035288
 20
665.5594264260033
 30
0.0
 10
828.5379603295956
 20
665.5628638812619
 30
0.0
 10
828.5303493556626
 20
665.5663013365205
 30
0.0
 10
828.5227383817295
 20
665.5697387917791
 30
0.0
  0
SPLINE
  5
17B
330
1F
100
AcDbEntity
  8
1
  6
Continuous
 62
    30
370
    18
100
AcDbSpline
210
0.0
220
0.0
230
1.0
 70
     8
 71
     3
 72
     8
 73
     4
 74
     0
 42
0.000000001
 43
0.0000000001
 40
0.0
 40
0.0
 40
0.0
 40
0.0
 40
1.0
 40
1.0
 40
1.0
 40
1.0
 10
828.5227383817295
 20
665.5697387917791
 30
0.0
 10
828.4295299635879
 20
665.9393075574329
 30
0.0
 10
828.274149870643
 20
666.2554996155869
 30
0.0
 10
828.0567102881785
 20
666.5185633590794
 30
0.0
  0
SPLINE
  5
17C
330
1F
100
AcDbEntity
  8
1
  6
Continuous
 62
    30
370
    18
100
AcDbSpline
210
0.0
220
0.0
230
1.0
 70
     8
 71
     3
 72
    77
 73
    73
 74
     0
 42
0.000000001
 43
0.0000000001
 40
0.0
 40
0.0
 40
0.0
 40
0.0
 40
0.031250000000001
 40
0.031250000000001
 40
0.0625000000000019
 40
0.0625000000000019
 40
0.0937500000000029
 40
0.0937500000000029
 40
0.1015625000000036
 40
0.1015625000000036
 40
0.1093750000000044
 40
0.1250000000000058
 40
0.1250000000000058
 40
0.132812500000007
 40
0.132812500000007
 40
0.1406250000000082
 40
0.1562500000000105
 40
0.1562500000000105
 40
0.1875000000000151
 40
0.1875000000000151
 40
0.2187500000000197
 40
0.2187500000000197
 40
0.2500000000000243
 40
0.2500000000000243
 40
0.2578125000000248
 40
0.2578125000000248
 40
0.2656250000000254
 40
0.2656250000000254
 40
0.2812500000000259
 40
0.2812500000000259
 40
0.3125000000000269
 40
0.3125000000000269
 40
0.3437500000000278
 40
0.3437500000000278
 40
0.3750000000000288
 40
0.3750000000000288
 40
0.4062500000000298
 40
0.4062500000000298
 40
0.4375000000000307
 40
0.4375000000000307
 40
0.4531250000000308
 40
0.4609375000000308
 40
0.4609375000000308
 40
0.4687500000000309
 40
0.4687500000000309
 40
0.5000000000000293
 40
0.5000000000000293
 40
0.5625000000000258
 40
0.5625000000000258
 40
0.6250000000000223
 40
0.6250000000000223
 40
0.6875000000000188
 40
0.6875000000000188
 40
0.7500000000000152
 40
0.7500000000000152
 40
0.7656250000000143
 40
0.7656250000000143
 40
0.7812500000000133
 40
0.7812500000000133
 40
0.8125000000000113
 40
0.8125000000000113
 40
0.8750000000000073
 40
0.8750000000000073
 40
0.9375000000000034
 40
0.9375000000000034
 40
0.9687500000000014
 40
0.9687500000000014
 40
0.9843750000000008
 40
0.9921875000000004
 40
0.9960937500000002
 40
0.9960937500000002
 40
1.0
 40
1.0
 40
1.0
 40
1.0
 10
793.0978053926844
 20
630.558942433007
 30
0.0
 10
793.1278557543493
 20
630.1506105099845
 30
0.0
 10
793.1710891048456
 20
629.7480300278921
 30
0.0
 10
793.2823513718348
 20
628.9535970146114
 30
0.0
 10
793.3503839036638
 20
628.5617463496242
 30
0.0
 10
793.5101369725616
 20
627.7882194520296
 30
0.0
 10
793.6018597776914
 20
627.4065443984376
 30
0.0
 10
793.7308546605777
 20
626.9355706577063
 30
0.0
 10
793.7573937648151
 20
626.8416095482813
 30
0.0
 10
793.8117001404574
 20
626.6549649494751
 30
0.0
 10
793.8950517353877
 20
626.3767208032348
 30
0.0
 10
793.9839517617621
 20
626.1035191542519
 30
0.0
 10
794.0764016931982
 20
625.8335322734755
 30
0.0
 10
794.1077643194471
 20
625.744209063088
 30
0.0
 10
794.171439504834
 20
625.5671657994633
 30
0.0
 10
794.2684276676896
 20
625.3038601945938
 30
0.0
 10
794.3696942606881
 20
625.0470927360506
 30
0.0
 10
794.5775895995861
 20
624.5417203203339
 30
0.0
 10
794.7233236301073
 20
624.2156685599143
 30
0.0
 10
795.0276002126943
 20
623.5829190266651
 30
0.0
 10
795.1861468019974
 20
623.2762279200954
 30
0.0
 10
795.5149436890097
 20
622.6804130818878
 30
0.0
 10
795.6851965710171
 20
622.3912936053599
 30
0.0
 10
795.9047945701933
 20
622.0400111747546
 30
0.0
 10
795.9490537884498
 20
621.9702613750376
 30
0.0
 10
796.0382400372955
 20
621.8317566215135
 30
0.0
 10
796.0831070197758
 20
621.7630959760562
 30
0.0
 10
796.2182824769267
 20
621.5591780396865
 30
0.0
 10
796.3092585700622
 20
621.4258378743696
 30
0.0
 10
796.5846210338995
 20
621.0331661440447
 30
0.0
 10
796.7714367724979
 20
620.7811676112091
 30
0.0
 10
797.1509231773471
 20
620.2946961258946
 30
0.0
 10
797.3435953101878
 20
620.060228041411
 30
0.0
 10
797.7343088113174
 20
619.6072374186477
 30
0.0
 10
797.9323511526443
 20
619.3887181017159
 30
0.0
 10
798.3334202420352
 20
618.9663718251004
 30
0.0
 10
798.5364476570677
 20
618.7625470692137
 30
0.0
 10
798.9471789710274
 20
618.3685843482856
 30
0.0
 10
799.1548833391629
 20
618.1784479320265
 30
0.0
 10
799.4697614909417
 20
617.9028986676904
 30
0.0
 10
799.6280316099813
 20
617.7675399256798
 30
0.0
 10
799.787518638179
 20
617.635707114491
 30
0.0
 10
799.8941107813797
 20
617.5485922743044
 30
0.0
 10
799.947561027038
 20
617.5054053741082
 30
0.0
 10
800.2152185056513
 20
617.2915842200068
 30
0.0
 10
800.4303510111841
 20
617.1275082063651
 30
0.0
 10
801.0785883698273
 20
616.6547158475221
 30
0.0
 10
801.5145245198436
 20
616.3653670980332
 30
0.0
 10
802.3932500662977
 20
615.8323927848044
 30
0.0
 10
802.8360424695276
 20
615.588792932203
 30
0.0
 10
803.7280262585122
 20
615.1433113039891
 30
0.0
 10
804.1772193084782
 20
614.9414439809376
 30
0.0
 10
805.0817212791509
 20
614.5767238414871
 30
0.0
 10
805.5370311057319
 20
614.413879297207
 30
0.0
 10
806.1098979314937
 20
614.233628759463
 30
0.0
 10
806.224658072663
 20
614.198746016722
 30
0.0
 10
806.4545507205446
 20
614.1312961386949
 30
0.0
 10
806.56971316864
 20
614.0987217115372
 30
0.0
 10
806.9152055365477
 20
614.0045929806005
 30
0.0
 10
807.1457034447113
 20
613.946581141107
 30
0.0
 10
807.8377150016016
 20
613.7864155841737
 30
0.0
 10
808.2997458692178
 20
613.6981091682815
 30
0.0
 10
809.2252483228324
 20
613.5571560347313
 30
0.0
 10
809.6887197895921
 20
613.5045122229149
 30
0.0
 10
810.3850689717539
 20
613.4518554014959
 30
0.0
 10
810.6173758714664
 20
613.4386930806562
 30
0.0
 10
810.9661314187239
 20
613.4255246651232
 30
0.0
 10
811.1405830111639
 20
613.4205846862825
 30
0.0
 10
811.3442413325484
 20
613.4177015056641
 30
0.0
 10
811.4315519000496
 20
613.4170836321616
 30
0.0
 10
811.4897652919921
 20
613.4168090756901
 30
0.0
 10
811.5189204932482
 20
613.4167405981447
 30
0.0
 10
811.5479106537052
 20
613.4167405981447
 30
0.0
  0
SPLINE
  5
17D
330
1F
100
AcDbEntity
  8
1
  6
Continuous
 62
    30
370
    13
100
AcDbSpline
210
0.0
220
0.0
230
1.0
 70
     8
 71
     3
 72
    75
 73
    71
 74
     0
 42
0.000000001
 43
0.0000000001
 40
0.0
 40
0.0
 40
0.0
 40
0.0
 40
0.0039062499999999
 40
0.0039062499999999
 40
0.0078124999999997
 40
0.0156249999999992
 40
0.0312499999999984
 40
0.0312499999999984
 40
0.0624999999999972
 40
0.0624999999999972
 40
0.1249999999999948
 40
0.1249999999999948
 40
0.1874999999999922
 40
0.1874999999999922
 40
0.218749999999991
 40
0.218749999999991
 40
0.2343749999999905
 40
0.2343749999999905
 40
0.2499999999999899
 40
0.2499999999999899
 40
0.312499999999988
 40
0.312499999999988
 40
0.3749999999999861
 40
0.3749999999999861
 40
0.4374999999999843
 40
0.4374999999999843
 40
0.4999999999999825
 40
0.4999999999999825
 40
0.5312499999999812
 40
0.5312499999999812
 40
0.5390624999999807
 40
0.5390624999999807
 40
0.5468749999999802
 40
0.56249999999998
 40
0.56249999999998
 40
0.59374999999998
 40
0.59374999999998
 40
0.62499999999998
 40
0.62499999999998
 40
0.65624999999998
 40
0.65624999999998
 40
0.68749999999998
 40
0.68749999999998
 40
0.71874999999998
 40
0.71874999999998
 40
0.7343749999999802
 40
0.74218749999998
 40
0.74218749999998
 40
0.7499999999999799
 40
0.7499999999999799
 40
0.7812499999999811
 40
0.7812499999999811
 40
0.8124999999999822
 40
0.8124999999999822
 40
0.8437499999999835
 40
0.8437499999999835
 40
0.8749999999999847
 40
0.8749999999999847
 40
0.8828124999999853
 40
0.8828124999999853
 40
0.8906249999999861
 40
0.8984374999999869
 40
0.8984374999999869
 40
0.9062499999999876
 40
0.9062499999999876
 40
0.9374999999999918
 40
0.9374999999999918
 40
0.9687499999999959
 40
0.9687499999999959
 40
1.0
 40
1.0
 40
1.0
 40
1.0
 10
811.5479106537052
 20
613.4167405981447
 30
0.0
 10
811.505482458806
 20
613.4167405981447
 30
0.0
 10
811.462771625153
 20
613.4168057168521
 30
0.0
 10
811.3775043914303
 20
613.4170669816449
 30
0.0
 10
811.2496163391876
 20
613.4176549902402
 30
0.0
 10
810.9513002615188
 20
613.420399102865
 30
0.0
 10
810.6957532814498
 20
613.4251012829754
 30
0.0
 10
810.184860998345
 20
613.4376366034468
 30
0.0
 10
809.8445349752966
 20
613.4501669689939
 30
0.0
 10
808.8243525985315
 20
613.5002994891473
 30
0.0
 10
808.1452908599384
 20
613.5504242623621
 30
0.0
 10
806.789255941385
 20
613.6846326831277
 30
0.0
 10
806.112282742399
 20
613.7687137312637
 30
0.0
 10
805.0983921001194
 20
613.9211912235434
 30
0.0
 10
804.7606903513481
 20
613.9764148818865
 30
0.0
 10
804.2545333277292
 20
614.0660093188615
 30
0.0
 10
804.0858175002547
 20
614.0970133538758
 30
0.0
 10
803.748940028534
 20
614.1612250554131
 30
0.0
 10
803.5807604671875
 20
614.1944349043725
 30
0.0
 10
802.7411665170494
 20
614.3660504838347
 30
0.0
 10
802.0736567969253
 20
614.5211241387643
 30
0.0
 10
800.7472793447239
 20
614.8684984998213
 30
0.0
 10
800.0884100945602
 20
615.0607916576034
 30
0.0
 10
798.77982143857
 20
615.485165831787
 30
0.0
 10
798.130099367066
 20
615.7172338197597
 30
0.0
 10
796.8405720194005
 20
616.2249217453823
 30
0.0
 10
796.200762032675
 20
616.5005187831082
 30
0.0
 10
795.2493339866727
 20
616.9506924726048
 30
0.0
 10
794.933575731095
 20
617.1068955240686
 30
0.0
 10
794.5407283333751
 20
617.3104087990035
 30
0.0
 10
794.4622237265964
 20
617.3515398098606
 30
0.0
 10
794.3056224950111
 20
617.434527999813
 30
0.0
 10
794.0712826211495
 20
617.5601245845863
 30
0.0
 10
793.8386491292365
 20
617.6891070031934
 30
0.0
 10
793.3757175851296
 20
617.9517125279707
 30
0.0
 10
793.0702079856869
 20
618.1329653117444
 30
0.0
 10
792.4657877407949
 20
618.5086219938781
 30
0.0
 10
792.1668764061211
 20
618.7030244460224
 30
0.0
 10
791.5761155091941
 20
619.1059462987149
 30
0.0
 10
791.2842649718216
 20
619.3144636519501
 30
0.0
 10
790.7082007564504
 20
619.7468143403677
 30
0.0
 10
790.4239856624392
 20
619.9706446997725
 30
0.0
 10
789.8639148644479
 20
620.4351275186477
 30
0.0
 10
789.58805703703
 20
620.6757755103124
 30
0.0
 10
789.1812312358526
 20
621.0508058070883
 30
0.0
 10
788.9795611973758
 20
621.2418410226118
 30
0.0
 10
788.7806638194525
 20
621.4384867828757
 30
0.0
 10
788.6487016495264
 20
621.5708723595072
 30
0.0
 10
788.5830616993447
 20
621.6376876929545
 30
0.0
 10
788.2575027645142
 20
621.9740363265527
 30
0.0
 10
788.0047145183505
 20
622.2511482745972
 30
0.0
 10
787.5157843327038
 20
622.8228782930751
 30
0.0
 10
787.2796383348496
 20
623.1174919270918
 30
0.0
 10
786.825702033354
 20
623.7260781715589
 30
0.0
 10
786.6079053642851
 20
624.0400438138876
 30
0.0
 10
786.1929154348558
 20
624.6897719597468
 30
0.0
 10
785.9957116911183
 20
625.0255229680748
 30
0.0
 10
785.7639781076173
 20
625.4608913760825
 30
0.0
 10
785.7184139201746
 20
625.5486771912296
 30
0.0
 10
785.6291040346063
 20
625.7253041254725
 30
0.0
 10
785.5415499757308
 20
625.903103272752
 30
0.0
 10
785.4575953521356
 20
626.083307262764
 30
0.0
 10
785.3754876444187
 20
626.2647461631811
 30
0.0
 10
785.3353566285741
 20
626.3560913470482
 30
0.0
 10
785.1401557796609
 20
626.8142575350856
 30
0.0
 10
785.0008073538343
 20
627.186729638034
 30
0.0
 10
784.757482586962
 20
627.9442009663962
 30
0.0
 10
784.6535007586655
 20
628.3291981299682
 30
0.0
 10
784.4833120404969
 20
629.1126083944774
 30
0.0
 10
784.4170965260623
 20
629.5110182500742
 30
0.0
 10
784.3714042557151
 20
629.9167405981447
 30
0.0
  0
SPLINE
  5
17E
330
1F
100
AcDbEntity
  8
1
  6
Continuous
 62
    30
370
    18
100
AcDbSpline
210
0.0
220
0.0
230
1.0
 70
     8
 71
     3
 72
    77
 73
    73
 74
     0
 42
0.000000001
 43
0.0000000001
 40
0.0
 40
0.0
 40
0.0
 40
0.0
 40
0.0039062499999999
 40
0.0039062499999999
 40
0.0078124999999999
 40
0.0156249999999998
 40
0.0312499999999997
 40
0.0312499999999997
 40
0.0624999999999991
 40
0.0624999999999991
 40
0.1249999999999972
 40
0.1249999999999972
 40
0.1874999999999954
 40
0.1874999999999954
 40
0.2187499999999946
 40
0.2187499999999946
 40
0.234374999999994
 40
0.234374999999994
 40
0.2499999999999936
 40
0.2499999999999936
 40
0.3124999999999908
 40
0.3124999999999908
 40
0.3749999999999881
 40
0.3749999999999881
 40
0.4374999999999853
 40
0.4374999999999853
 40
0.4999999999999828
 40
0.4999999999999828
 40
0.5312499999999816
 40
0.5312499999999816
 40
0.5390624999999815
 40
0.5390624999999815
 40
0.5468749999999813
 40
0.5624999999999811
 40
0.5624999999999811
 40
0.5937499999999816
 40
0.5937499999999816
 40
0.6249999999999818
 40
0.6249999999999818
 40
0.6562499999999821
 40
0.6562499999999821
 40
0.6874999999999825
 40
0.6874999999999825
 40
0.7187499999999827
 40
0.7187499999999827
 40
0.7343749999999829
 40
0.7343749999999829
 40
0.7421874999999833
 40
0.7421874999999833
 40
0.7499999999999838
 40
0.7499999999999838
 40
0.7812499999999858
 40
0.7812499999999858
 40
0.8124999999999878
 40
0.8124999999999878
 40
0.8437499999999898
 40
0.8437499999999898
 40
0.8593749999999907
 40
0.8671874999999911
 40
0.8671874999999911
 40
0.8749999999999916
 40
0.8749999999999916
 40
0.8906249999999934
 40
0.8984374999999943
 40
0.8984374999999943
 40
0.9062499999999952
 40
0.9062499999999952
 40
0.9374999999999968
 40
0.9374999999999968
 40
0.9687499999999984
 40
0.9687499999999984
 40
1.0
 40
1.0
 40
1.0
 40
1.0
 10
811.5479106537052
 20
613.4167405981447
 30
0.0
 10
811.5769008141624
 20
613.4167405981447
 30
0.0
 10
811.6060560154185
 20
613.4168090756901
 30
0.0
 10
811.6642694073608
 20
613.4170836321616
 30
0.0
 10
811.7515799748621
 20
613.4177015056641
 30
0.0
 10
811.9552382962466
 20
613.4205846862824
 30
0.0
 10
812.1296898886867
 20
613.4255246651232
 30
0.0
 10
812.4784454359442
 20
613.4386930806562
 30
0.0
 10
812.7107523356567
 20
613.4518554014958
 30
0.0
 10
813.4071015178183
 20
613.5045122229149
 30
0.0
 10
813.8705729845782
 20
613.5571560347313
 30
0.0
 10
814.7960754381928
 20
613.6981091682815
 30
0.0
 10
815.258106305809
 20
613.7864155841737
 30
0.0
 10
815.9501178626992
 20
613.946581141107
 30
0.0
 10
816.1806157708629
 20
614.0045929806005
 30
0.0
 10
816.5261081387706
 20
614.0987217115373
 30
0.0
 10
816.641270586866
 20
614.1312961386949
 30
0.0
 10
816.8711632347475
 20
614.1987460167219
 30
0.0
 10
816.9859233759169
 20
614.233628759463
 30
0.0
 10
817.5587902016787
 20
614.413879297207
 30
0.0
 10
818.0141000282597
 20
614.576723841487
 30
0.0
 10
818.9186019989323
 20
614.9414439809375
 30
0.0
 10
819.3677950488984
 20
615.1433113039891
 30
0.0
 10
820.2597788378831
 20
615.588792932203
 30
0.0
 10
820.7025712411129
 20
615.8323927848044
 30
0.0
 10
821.581296787567
 20
616.3653670980332
 30
0.0
 10
822.0172329375832
 20
616.6547158475221
 30
0.0
 10
822.6654702962265
 20
617.1275082063651
 30
0.0
 10
822.8806028017593
 20
617.2915842200068
 30
0.0
 10
823.1482602803726
 20
617.5054053741082
 30
0.0
 10
823.201710526031
 20
617.5485922743044
 30
0.0
 10
823.3083026692316
 20
617.635707114491
 30
0.0
 10
823.4677896974292
 20
617.7675399256798
 30
0.0
 10
823.6260598164689
 20
617.9028986676904
 30
0.0
 10
823.9409379682477
 20
618.1784479320265
 30
0.0
 10
824.1486423363832
 20
618.3685843482856
 30
0.0
 10
824.5593736503429
 20
618.7625470692137
 30
0.0
 10
824.7624010653753
 20
618.9663718251004
 30
0.0
 10
825.1634701547663
 20
619.3887181017158
 30
0.0
 10
825.3615124960933
 20
619.6072374186477
 30
0.0
 10
825.7522259972228
 20
620.060228041411
 30
0.0
 10
825.9448981300635
 20
620.2946961258946
 30
0.0
 10
826.3243845349127
 20
620.7811676112091
 30
0.0
 10
826.5112002735111
 20
621.0331661440447
 30
0.0
 10
826.7865627373484
 20
621.4258378743696
 30
0.0
 10
826.877538830484
 20
621.5591780396865
 30
0.0
 10
827.0127142876348
 20
621.7630959760562
 30
0.0
 10
827.0575812701151
 20
621.8317566215135
 30
0.0
 10
827.1467675189609
 20
621.9702613750376
 30
0.0
 10
827.1910267372173
 20
622.0400111747546
 30
0.0
 10
827.4106247363936
 20
622.3912936053599
 30
0.0
 10
827.5808776184009
 20
622.6804130818878
 30
0.0
 10
827.9096745054131
 20
623.2762279200954
 30
0.0
 10
828.0682210947163
 20
623.5829190266651
 30
0.0
 10
828.3724976773033
 20
624.2156685599143
 30
0.0
 10
828.5182317078245
 20
624.541720320334
 30
0.0
 10
828.7261270467226
 20
625.0470927360506
 30
0.0
 10
828.827393639721
 20
625.3038601945938
 30
0.0
 10
828.9243818025767
 20
625.5671657994633
 30
0.0
 10
828.9880569879634
 20
625.744209063088
 30
0.0
 10
829.0194196142123
 20
625.8335322734755
 30
0.0
 10
829.1118695456486
 20
626.1035191542519
 30
0.0
 10
829.200769572023
 20
626.3767208032348
 30
0.0
 10
829.2841211669531
 20
626.6549649494751
 30
0.0
 10
829.3384275425956
 20
626.8416095482813
 30
0.0
 10
829.364966646833
 20
626.9355706577063
 30
0.0
 10
829.4939615297193
 20
627.4065443984376
 30
0.0
 10
829.585684334849
 20
627.7882194520296
 30
0.0
 10
829.7454374037468
 20
628.5617463496242
 30
0.0
 10
829.8134699355759
 20
628.9535970146114
 30
0.0
 10
829.9247322025651
 20
629.7480300278921
 30
0.0
 10
829.9679655530614
 20
630.1506105099845
 30
0.0
 10
829.9980159147261
 20
630.558942433007
 30
0.0
  0
SPLINE
  5
17F
330
1F
100
AcDbEntity
  8
1
  6
Continuous
 62
    30
370
    13
100
AcDbSpline
210
0.0
220
0.0
230
1.0
 70
     8
 71
     3
 72
    75
 73
    71
 74
     0
 42
0.000000001
 43
0.0000000001
 40
0.0
 40
0.0
 40
0.0
 40
0.0
 40
0.0312500000000051
 40
0.0312500000000051
 40
0.0625000000000102
 40
0.0625000000000102
 40
0.0937500000000152
 40
0.0937500000000152
 40
0.1015625000000162
 40
0.1015625000000162
 40
0.1093750000000172
 40
0.1171875000000182
 40
0.1171875000000182
 40
0.1250000000000192
 40
0.1250000000000192
 40
0.1562500000000209
 40
0.1562500000000209
 40
0.1875000000000226
 40
0.1875000000000226
 40
0.2187500000000243
 40
0.2187500000000243
 40
0.250000000000026
 40
0.250000000000026
 40
0.257812500000026
 40
0.257812500000026
 40
0.2656250000000259
 40
0.2812500000000265
 40
0.2812500000000265
 40
0.3125000000000273
 40
0.3125000000000273
 40
0.343750000000028
 40
0.343750000000028
 40
0.3750000000000288
 40
0.3750000000000288
 40
0.4062500000000295
 40
0.4062500000000295
 40
0.4375000000000303
 40
0.4375000000000303
 40
0.4531250000000304
 40
0.4609375000000302
 40
0.4609375000000302
 40
0.4687500000000299
 40
0.4687500000000299
 40
0.500000000000028
 40
0.500000000000028
 40
0.5625000000000246
 40
0.5625000000000246
 40
0.6250000000000214
 40
0.6250000000000214
 40
0.6875000000000181
 40
0.6875000000000181
 40
0.7500000000000149
 40
0.7500000000000149
 40
0.765625000000014
 40
0.765625000000014
 40
0.7812500000000131
 40
0.7812500000000131
 40
0.8125000000000112
 40
0.8125000000000112
 40
0.8750000000000077
 40
0.8750000000000077
 40
0.9375000000000039
 40
0.9375000000000039
 40
0.9687500000000021
 40
0.9687500000000021
 40
0.984375000000001
 40
0.9921875000000003
 40
0.9960937500000001
 40
0.9960937500000001
 40
1.0
 40
1.0
 40
1.0
 40
1.0
 10
838.7244170516955
 20
629.9167405981447
 30
0.0
 10
838.6787247813484
 20
629.5110182500742
 30
0.0
 10
838.6125092669138
 20
629.1126083944774
 30
0.0
 10
838.4423205487451
 20
628.3291981299682
 30
0.0
 10
838.3383387204485
 20
627.9442009663962
 30
0.0
 10
838.0950139535763
 20
627.186729638034
 30
0.0
 10
837.9556655277498
 20
626.8142575350856
 30
0.0
 10
837.7604646788365
 20
626.3560913470482
 30
0.0
 10
837.7203336629918
 20
626.2647461631811
 30
0.0
 10
837.638225955275
 20
626.083307262764
 30
0.0
 10
837.5542713218929
 20
625.9031032795688
 30
0.0
 10
837.4667172728043
 20
625.7253041254725
 30
0.0
 10
837.377407387236
 20
625.5486771912296
 30
0.0
 10
837.3318431997933
 20
625.4608913760825
 30
0.0
 10
837.1001096162923
 20
625.0255229680748
 30
0.0
 10
836.9029058725549
 20
624.689771959747
 30
0.0
 10
836.4879159431255
 20
624.0400438138876
 30
0.0
 10
836.2701192740566
 20
623.7260781715589
 30
0.0
 10
835.816182972561
 20
623.1174919270918
 30
0.0
 10
835.5800369747069
 20
622.8228782930751
 30
0.0
 10
835.0911067890602
 20
622.2511482745973
 30
0.0
 10
834.8383185428963
 20
621.9740363265528
 30
0.0
 10
834.5127596080658
 20
621.6376876929545
 30
0.0
 10
834.4471196578842
 20
621.5708723595072
 30
0.0
 10
834.3151574879582
 20
621.4384867828757
 30
0.0
 10
834.1162601100348
 20
621.2418410226117
 30
0.0
 10
833.9145900715581
 20
621.0508058070883
 30
0.0
 10
833.5077642703806
 20
620.6757755103124
 30
0.0
 10
833.2319064429627
 20
620.4351275186477
 30
0.0
 10
832.6718356449713
 20
619.9706446997726
 30
0.0
 10
832.3876205509602
 20
619.7468143403677
 30
0.0
 10
831.811556335589
 20
619.3144636519501
 30
0.0
 10
831.5197057982165
 20
619.1059462987149
 30
0.0
 10
830.9289449012895
 20
618.7030244460223
 30
0.0
 10
830.6300335666157
 20
618.5086219938781
 30
0.0
 10
830.0256133217237
 20
618.1329653117443
 30
0.0
 10
829.720103722281
 20
617.9517125279707
 30
0.0
 10
829.2571721781741
 20
617.6891070031934
 30
0.0
 10
829.024538686261
 20
617.5601245845862
 30
0.0
 10
828.7901988123995
 20
617.434527999813
 30
0.0
 10
828.6335975808141
 20
617.3515398098606
 30
0.0
 10
828.5550929740355
 20
617.3104087990037
 30
0.0
 10
828.1622455763156
 20
617.1068955240686
 30
0.0
 10
827.846487320738
 20
616.9506924726048
 30
0.0
 10
826.8950592747356
 20
616.5005187831082
 30
0.0
 10
826.2552492880101
 20
616.2249217453823
 30
0.0
 10
824.9657219403446
 20
615.7172338197597
 30
0.0
 10
824.3159998688407
 20
615.4851658317872
 30
0.0
 10
823.0074112128506
 20
615.0607916576035
 30
0.0
 10
822.3485419626867
 20
614.8684984998213
 30
0.0
 10
821.0221645104853
 20
614.5211241387642
 30
0.0
 10
820.3546547903612
 20
614.3660504838347
 30
0.0
 10
819.5150608402231
 20
614.1944349043727
 30
0.0
 10
819.3468812788766
 20
614.1612250554131
 30
0.0
 10
819.0100038071558
 20
614.0970133538758
 30
0.0
 10
818.8412879796814
 20
614.0660093188615
 30
0.0
 10
818.3351309560625
 20
613.9764148818865
 30
0.0
 10
817.9974292072911
 20
613.9211912235434
 30
0.0
 10
816.9835385650116
 20
613.7687137312637
 30
0.0
 10
816.3065653660256
 20
613.6846326831277
 30
0.0
 10
814.950530447472
 20
613.5504242623621
 30
0.0
 10
814.2714687088791
 20
613.5002994891473
 30
0.0
 10
813.2512863321139
 20
613.4501669689939
 30
0.0
 10
812.9109603090654
 20
613.4376366034469
 30
0.0
 10
812.4000680259608
 20
613.4251012829754
 30
0.0
 10
812.1445210458917
 20
613.420399102865
 30
0.0
 10
811.8462049682229
 20
613.4176549902402
 30
0.0
 10
811.7183169159802
 20
613.4170669816449
 30
0.0
 10
811.6330496822576
 20
613.4168057168521
 30
0.0
 10
811.5903388486046
 20
613.4167405981447
 30
0.0
 10
811.5479106537052
 20
613.4167405981447
 30
0.0
  0
SPLINE
  5
180
330
1F
100
AcDbEntity
  8
1
  6
Continuous
 62
    30
370
    13
100
AcDbSpline
210
0.0
220
0.0
230
1.0
 70
     8
 71
     3
 72
    58
 73
    54
 74
     0
 42
0.000000001
 43
0.0000000001
 40
0.0
 40
0.0
 40
0.0
 40
0.0
 40
0.0312500000000062
 40
0.0312500000000062
 40
0.0625000000000124
 40
0.0625000000000124
 40
0.1250000000000236
 40
0.1250000000000236
 40
0.1875000000000347
 40
0.1875000000000347
 40
0.1953125000000352
 40
0.1953125000000352
 40
0.2031250000000356
 40
0.2187500000000364
 40
0.250000000000037
 40
0.250000000000037
 40
0.3125000000000382
 40
0.3125000000000382
 40
0.3750000000000394
 40
0.3750000000000394
 40
0.382812500000039
 40
0.382812500000039
 40
0.3906250000000386
 40
0.3906250000000386
 40
0.4062500000000371
 40
0.4375000000000341
 40
0.4375000000000341
 40
0.5000000000000272
 40
0.5000000000000272
 40
0.5625000000000202
 40
0.5625000000000202
 40
0.5781250000000185
 40
0.5859375000000181
 40
0.5859375000000181
 40
0.5937500000000177
 40
0.5937500000000177
 40
0.625000000000016
 40
0.625000000000016
 40
0.6875000000000119
 40
0.6875000000000119
 40
0.7500000000000079
 40
0.7500000000000079
 40
0.8125000000000038
 40
0.8125000000000038
 40
0.8203125000000037
 40
0.8203125000000037
 40
0.8281250000000036
 40
0.8437500000000033
 40
0.8750000000000024
 40
0.8750000000000024
 40
0.9375000000000011
 40
0.9375000000000011
 40
1.0
 40
1.0
 40
1.0
 40
1.0
 10
766.1972041478988
 20
627.4763117517092
 30
0.0
 10
766.2527420838426
 20
627.1734908019164
 30
0.0
 10
766.3102339091965
 20
626.8738043501761
 30
0.0
 10
766.4294415090625
 20
626.2806022031109
 30
0.0
 10
766.4911575196967
 20
625.9870868487058
 30
0.0
 10
766.6833180855228
 20
625.1157666743607
 30
0.0
 10
766.8207100718832
 20
624.5471565078715
 30
0.0
 10
767.1192320457861
 20
623.4351192542813
 30
0.0
 10
767.2803542941019
 20
622.8916937293234
 30
0.0
 10
767.4790991332558
 20
622.295425656865
 30
0.0
 10
767.5014331580389
 20
622.2293652762456
 30
0.0
 10
767.5464566322859
 20
622.0981002895082
 30
0.0
 10
767.614577584694
 20
621.9023266088827
 30
0.0
 10
767.7777365543168
 20
621.4533470943036
 30
0.0
 10
767.9251866967504
 20
621.081795574142
 30
0.0
 10
768.2312890017336
 20
620.3561673976825
 30
0.0
 10
768.4502779020031
 20
619.8956919571806
 30
0.0
 10
768.92420015859
 20
619.0206926570095
 30
0.0
 10
769.1791346777579
 20
618.6061774303239
 30
0.0
 10
769.4898592980994
 20
618.1657308809017
 30
0.0
 10
769.5247168226211
 20
618.1171521881173
 30
0.0
 10
769.5951103756081
 20
618.0207150447727
 30
0.0
 10
769.6306645197598
 20
617.9728338269259
 30
0.0
 10
769.7380166055891
 20
617.8307254337255
 30
0.0
 10
769.9557812905575
 20
617.552226025089
 30
0.0
 10
770.1829057136771
 20
617.2904375184391
 30
0.0
 10
770.6500607726148
 20
616.7880683908802
 30
0.0
 10
770.9787197862931
 20
616.4814087322003
 30
0.0
 10
771.6723832958954
 20
615.9195830101002
 30
0.0
 10
772.0373846002977
 20
615.664425489018
 30
0.0
 10
772.5172794872105
 20
615.3749640054709
 30
0.0
 10
772.663019886345
 20
615.2903389628609
 30
0.0
 10
772.8114406284155
 20
615.2089634174056
 30
0.0
 10
772.9109857749152
 20
615.1554275177674
 30
0.0
 10
772.9610884210556
 20
615.1290008853009
 30
0.0
 10
773.2126661296802
 20
614.9988588699575
 30
0.0
 10
773.4172194882447
 20
614.901159002911
 30
0.0
 10
774.0406096791564
 20
614.6257642516498
 30
0.0
 10
774.4691772940089
 20
614.4657307936088
 30
0.0
 10
775.3514508066273
 20
614.1858252795317
 30
0.0
 10
775.8051549452466
 20
614.0659664929645
 30
0.0
 10
776.7368852855444
 20
613.8607139640669
 30
0.0
 10
777.214910541367
 20
613.7753294630951
 30
0.0
 10
777.7659327477995
 20
613.6959603992887
 30
0.0
 10
777.8273533226634
 20
613.6873723968918
 30
0.0
 10
777.9504179959092
 20
613.6706712000503
 30
0.0
 10
778.135397153072
 20
613.6463246316437
 30
0.0
 10
778.5696727925174
 20
613.5943363306234
 30
0.0
 10
778.9464061838543
 20
613.5576507159134
 30
0.0
 10
779.7057226054341
 20
613.4938375374437
 30
0.0
 10
780.219729573092
 20
613.4640154542222
 30
0.0
 10
781.262641642634
 20
613.4254633349856
 30
0.0
 10
781.7915470742167
 20
613.4167405981447
 30
0.0
 10
782.327608888944
 20
613.4167405981447
 30
0.0
  0
SPLINE
  5
181
330
1F
100
AcDbEntity
  8
1
  6
Continuous
 62
    30
370
    13
100
AcDbSpline
210
0.0
220
0.0
230
1.0
 70
     8
 71
     3
 72
    61
 73
    57
 74
     0
 42
0.000000001
 43
0.0000000001
 40
0.0
 40
0.0
 40
0.0
 40
0.0
 40
0.0624999999999987
 40
0.0624999999999987
 40
0.1249999999999977
 40
0.1249999999999977
 40
0.1874999999999967
 40
0.1874999999999967
 40
0.2499999999999957
 40
0.2499999999999957
 40
0.2812499999999955
 40
0.2812499999999955
 40
0.2890624999999952
 40
0.2890624999999952
 40
0.296874999999995
 40
0.296874999999995
 40
0.312499999999995
 40
0.312499999999995
 40
0.3749999999999956
 40
0.3749999999999956
 40
0.4374999999999963
 40
0.4374999999999963
 40
0.499999999999997
 40
0.499999999999997
 40
0.5156249999999967
 40
0.5156249999999967
 40
0.5234374999999962
 40
0.5234374999999962
 40
0.5312499999999957
 40
0.5624999999999928
 40
0.5624999999999928
 40
0.6249999999999883
 40
0.6249999999999883
 40
0.6874999999999838
 40
0.6874999999999838
 40
0.7187499999999811
 40
0.7187499999999811
 40
0.726562499999981
 40
0.726562499999981
 40
0.7343749999999808
 40
0.7499999999999816
 40
0.7499999999999816
 40
0.812499999999987
 40
0.812499999999987
 40
0.8749999999999925
 40
0.8749999999999925
 40
0.9062499999999944
 40
0.9062499999999944
 40
0.9140624999999953
 40
0.9140624999999953
 40
0.9218749999999962
 40
0.9218749999999962
 40
0.9374999999999964
 40
0.9374999999999964
 40
0.9687499999999982
 40
1.0
 40
1.0
 40
1.0
 40
1.0
 10
840.7682124184664
 20
613.4167405981447
 30
0.0
 10
841.303761158916
 20
613.4167405981447
 30
0.0
 10
841.8314632379465
 20
613.4254500465823
 30
0.0
 10
842.8705750077711
 20
613.4637617110342
 30
0.0
 10
843.381984949748
 20
613.4933579365371
 30
0.0
 10
844.3878121992393
 20
613.5774879357796
 30
0.0
 10
844.882229701363
 20
613.6320132705271
 30
0.0
 10
845.8532631825907
 20
613.7708386943671
 30
0.0
 10
846.3298791770703
 20
613.855126515145
 30
0.0
 10
847.0307610847706
 20
614.0083398536754
 30
0.0
 10
847.2620471568633
 20
614.0638842641214
 30
0.0
 10
847.5481498555695
 20
614.1394582094172
 30
0.0
 10
847.6052201349218
 20
614.1548804311125
 30
0.0
 10
847.719058152018
 20
614.1863546203493
 30
0.0
 10
847.7758515163979
 20
614.2024142333039
 30
0.0
 10
847.945457985135
 20
614.251467704132
 30
0.0
 10
848.0575671911162
 20
614.285354065347
 30
0.0
 10
848.6132920110916
 20
614.4608904975578
 30
0.0
 10
849.0424391480291
 20
614.6208252063108
 30
0.0
 10
849.8696211155932
 20
614.9848667531331
 30
0.0
 10
850.2676530413106
 20
615.1889646057334
 30
0.0
 10
851.0325219074872
 20
615.64736707805
 30
0.0
 10
851.3993546000208
 20
615.9016584279758
 30
0.0
 10
851.8385179978978
 20
616.2554311147899
 30
0.0
 10
851.9253826678798
 20
616.3279846541238
 30
0.0
 10
852.0542328437633
 20
616.4396102796137
 30
0.0
 10
852.0969075117245
 20
616.4772561039317
 30
0.0
 10
852.1815203292527
 20
616.5532586244193
 30
0.0
 10
852.3913529936158
 20
616.7451645036608
 30
0.0
 10
852.5927880152359
 20
616.9466095838768
 30
0.0
 10
853.060892089426
 20
617.4487406389898
 30
0.0
 10
853.3525019475801
 20
617.8083638785005
 30
0.0
 10
853.8991293304174
 20
618.5794820602921
 30
0.0
 10
854.154147422915
 20
618.9909664777126
 30
0.0
 10
854.5126200689347
 20
619.6491280825054
 30
0.0
 10
854.628103335565
 20
619.8753433146314
 30
0.0
 10
854.7678105265927
 20
620.1669150613399
 30
0.0
 10
854.7955358146893
 20
620.2257046660822
 30
0.0
 10
854.850457107092
 20
620.3440125975542
 30
0.0
 10
854.9319437931636
 20
620.5223458596273
 30
0.0
 10
855.010822262555
 20
620.7032761581617
 30
0.0
 10
855.2682837808758
 20
621.3120802792071
 30
0.0
 10
855.456820427038
 20
621.8173383101323
 30
0.0
 10
855.8064604901303
 20
622.8630938488482
 30
0.0
 10
855.9675621580587
 20
623.4035847893659
 30
0.0
 10
856.1930760069939
 20
624.2405979746579
 30
0.0
 10
856.2655459284532
 20
624.5239901618576
 30
0.0
 10
856.3531296533953
 20
624.883772065556
 30
0.0
 10
856.3704959735428
 20
624.9560057428156
 30
0.0
 10
856.4049361119628
 20
625.1010299980795
 30
0.0
 10
856.4219947794827
 20
625.1737575055812
 30
0.0
 10
856.4726371907191
 20
625.3923048246772
 30
0.0
 10
856.5057146497566
 20
625.5386027443097
 30
0.0
 10
856.6030174295779
 20
625.9792732730077
 30
0.0
 10
856.727618510724
 20
626.5715683025531
 30
0.0
 10
856.8430226177019
 20
627.1731821580702
 30
0.0
 10
856.8986171595118
 20
627.4763117517091
 30
0.0
  0
SPLINE
  5
182
330
1F
100
AcDbEntity
  8
1
  6
Continuous
 62
    30
370
    13
100
AcDbSpline
210
0.0
220
0.0
230
1.0
 70
     8
 71
     3
 72
    62
 73
    58
 74
     0
 42
0.000000001
 43
0.0000000001
 40
0.0
 40
0.0
 40
0.0
 40
0.0
 40
0.0312499999999998
 40
0.0312499999999998
 40
0.0624999999999995
 40
0.0624999999999995
 40
0.0781249999999994
 40
0.0781249999999994
 40
0.0859374999999993
 40
0.0859374999999993
 40
0.0937499999999992
 40
0.1250000000000014
 40
0.1250000000000014
 40
0.1562500000000037
 40
0.1562500000000037
 40
0.1875000000000059
 40
0.1875000000000059
 40
0.2500000000000103
 40
0.2500000000000103
 40
0.2656250000000114
 40
0.2734375000000116
 40
0.2734375000000116
 40
0.2812500000000118
 40
0.2812500000000118
 40
0.3125000000000113
 40
0.3125000000000113
 40
0.3750000000000104
 40
0.3750000000000104
 40
0.4375000000000094
 40
0.4375000000000094
 40
0.4687500000000089
 40
0.4687500000000089
 40
0.4843750000000088
 40
0.4921875000000087
 40
0.4921875000000087
 40
0.5000000000000085
 40
0.5000000000000085
 40
0.562500000000008
 40
0.562500000000008
 40
0.6250000000000073
 40
0.6250000000000073
 40
0.6875000000000068
 40
0.6875000000000068
 40
0.7187500000000066
 40
0.7187500000000066
 40
0.7265625000000064
 40
0.7265625000000064
 40
0.7343750000000062
 40
0.7500000000000059
 40
0.7500000000000059
 40
0.8125000000000044
 40
0.8125000000000044
 40
0.8750000000000029
 40
0.8750000000000029
 40
0.9375000000000014
 40
0.9375000000000014
 40
1.0
 40
1.0
 40
1.0
 40
1.0
 10
865.4784805525022
 20
625.3810052199466
 30
0.0
 10
865.419978219164
 20
624.9144488493087
 30
0.0
 10
865.3589849947566
 20
624.4523912294464
 30
0.0
 10
865.2315944909894
 20
623.5371112565628
 30
0.0
 10
865.1651970930928
 20
623.0838892582092
 30
0.0
 10
865.0610960908425
 20
622.4106361398553
 30
0.0
 10
865.0256435466431
 20
622.1873158225712
 30
0.0
 10
864.9712673191373
 20
621.853982013145
 30
0.0
 10
864.9529327280238
 20
621.7430885502882
 30
0.0
 10
864.9158952292082
 20
621.522110660021
 30
0.0
 10
864.8224770340248
 20
620.9722629805341
 30
0.0
 10
864.7248379306312
 20
620.4352218077195
 30
0.0
 10
864.5625868895318
 20
619.5916708551671
 30
0.0
 10
864.4784468965959
 20
619.1777540581103
 30
0.0
 10
864.3034149598711
 20
618.3651364928425
 30
0.0
 10
864.2125229427592
 20
617.9664365872627
 30
0.0
 10
863.9284955798778
 20
616.7926282659971
 30
0.0
 10
863.7240568129437
 20
616.0397597168605
 30
0.0
 10
863.444873105519
 20
615.1348615380173
 30
0.0
 10
863.3593397053844
 20
614.8661123209691
 30
0.0
 10
863.2709870593081
 20
614.6014359271896
 30
0.0
 10
863.2114411534583
 20
614.425889916417
 30
0.0
 10
863.1813208158355
 20
614.3384976985915
 30
0.0
 10
863.0294368384818
 20
613.9048556219524
 30
0.0
 10
862.9038583359091
 20
613.5685966119278
 30
0.0
 10
862.5139207753589
 20
612.590124760655
 30
0.0
 10
862.2363648701474
 20
611.9781447579074
 30
0.0
 10
861.640692788741
 20
610.828177544605
 30
0.0
 10
861.3225805807809
 20
610.2902169392901
 30
0.0
 10
860.810811942564
 20
609.535329682905
 30
0.0
 10
860.6344536244806
 20
609.2923895655645
 30
0.0
 10
860.360716638319
 20
608.9406817792365
 30
0.0
 10
860.221547989588
 20
608.7680044396977
 30
0.0
 10
860.0788239008069
 20
608.6000379265735
 30
0.0
 10
859.9828725090896
 20
608.4891016146283
 30
0.0
 10
859.9344762827936
 20
608.434133387082
 30
0.0
 10
859.4963258576267
 20
607.9452652175373
 30
0.0
 10
859.0868250803541
 20
607.5502304141849
 30
0.0
 10
858.2253310752378
 20
606.8305320894087
 30
0.0
 10
857.7733420284302
 20
606.5058932700209
 30
0.0
 10
856.8245229896938
 20
605.9202604126659
 30
0.0
 10
856.3276965013782
 20
605.6592823453727
 30
0.0
 10
855.5470289792041
 20
605.3114526560813
 30
0.0
 10
855.2809011500216
 20
605.2027908268566
 30
0.0
 10
854.9406642363763
 20
605.0756905412084
 30
0.0
 10
854.872207936599
 20
605.0506965683277
 30
0.0
 10
854.7347732107678
 20
605.0016571900278
 30
0.0
 10
854.5277823706012
 20
604.9294987551621
 30
0.0
 10
854.3182729018307
 20
604.8614652720851
 30
0.0
 10
853.6142998562341
 20
604.6435282503999
 30
0.0
 10
853.0331795054664
 20
604.4974144663175
 30
0.0
 10
851.8347088429192
 20
604.2543091503668
 30
0.0
 10
851.2173600734591
 20
604.157332357362
 30
0.0
 10
849.945955611844
 20
604.0063511650222
 30
0.0
 10
849.2919012828517
 20
603.9523573709907
 30
0.0
 10
847.9464313726783
 20
603.8819781481488
 30
0.0
 10
847.2550171921265
 20
603.8656008788859
 30
0.0
 10
846.5444862072096
 20
603.8656008788859
 30
0.0
  0
SPLINE
  5
183
330
1F
100
AcDbEntity
  8
1
  6
Continuous
 62
    30
370
    13
100
AcDbSpline
210
0.0
220
0.0
230
1.0
 70
     8
 71
     3
 72
    64
 73
    60
 74
     0
 42
0.000000001
 43
0.0000000001
 40
0.0
 40
0.0
 40
0.0
 40
0.0
 40
0.0625000000000002
 40
0.0625000000000002
 40
0.1250000000000004
 40
0.1250000000000004
 40
0.1562500000000005
 40
0.1562500000000005
 40
0.1640625000000004
 40
0.1640625000000004
 40
0.1718750000000003
 40
0.1718750000000003
 40
0.1875000000000006
 40
0.1875000000000006
 40
0.2500000000000019
 40
0.2500000000000019
 40
0.3125000000000032
 40
0.3125000000000032
 40
0.3750000000000044
 40
0.3750000000000044
 40
0.3906250000000049
 40
0.3906250000000049
 40
0.3984375000000052
 40
0.3984375000000052
 40
0.4062500000000054
 40
0.4375000000000057
 40
0.4375000000000057
 40
0.5000000000000063
 40
0.5000000000000063
 40
0.562500000000007
 40
0.562500000000007
 40
0.5937500000000072
 40
0.5937500000000072
 40
0.6015625000000072
 40
0.6015625000000072
 40
0.6093750000000072
 40
0.6093750000000072
 40
0.6250000000000073
 40
0.6250000000000073
 40
0.6875000000000074
 40
0.6875000000000074
 40
0.7500000000000075
 40
0.7500000000000075
 40
0.7812500000000078
 40
0.7812500000000078
 40
0.796875000000008
 40
0.8046875000000077
 40
0.8046875000000077
 40
0.8125000000000073
 40
0.8125000000000073
 40
0.8437500000000061
 40
0.8750000000000049
 40
0.9062500000000037
 40
0.9062500000000037
 40
0.9375000000000024
 40
0.9375000000000024
 40
0.9687500000000012
 40
0.9687500000000012
 40
1.0
 40
1.0
 40
1.0
 40
1.0
 10
776.551335100201
 20
603.865600878886
 30
0.0
 10
775.8404961058012
 20
603.865600878886
 30
0.0
 10
775.1475343811234
 20
603.8819867360756
 30
0.0
 10
773.7967692057575
 20
603.952820482765
 30
0.0
 10
773.1389669260515
 20
604.0072587226097
 30
0.0
 10
772.1783436408748
 20
604.1219213686363
 30
0.0
 10
771.8624840942316
 20
604.1656492558319
 30
0.0
 10
771.4730752044625
 20
604.227714541707
 30
0.0
 10
771.3954642287142
 20
604.2404980410727
 30
0.0
 10
771.2407834862217
 20
604.2668196776099
 30
0.0
 10
771.1636954921653
 20
604.2803611398288
 30
0.0
 10
770.9333690733422
 20
604.3221155578458
 30
0.0
 10
770.7812024939784
 20
604.3514332423797
 30
0.0
 10
770.0272320206817
 20
604.5056229213866
 30
0.0
 10
769.446009122367
 20
604.653268238283
 30
0.0
 10
768.3260585988929
 20
605.0025665535369
 30
0.0
 10
767.7873333649384
 20
605.2042070685388
 30
0.0
 10
766.7510920829326
 20
605.6678705983308
 30
0.0
 10
766.2535788858623
 20
605.9298756122754
 30
0.0
 10
765.6566667107552
 20
606.2999923591829
 30
0.0
 10
765.5385332228057
 20
606.3761505308878
 30
0.0
 10
765.3631915708823
 20
606.4936958070564
 30
0.0
 10
765.3050757235375
 20
606.5334153360646
 30
0.0
 10
765.1896934838479
 20
606.6138080132698
 30
0.0
 10
764.9032238516237
 20
606.8172661169278
 30
0.0
 10
764.6265839898441
 20
607.0331999182383
 30
0.0
 10
763.98077516881
 20
607.5762244607596
 30
0.0
 10
763.5744025672342
 20
607.9712415035725
 30
0.0
 10
762.806114541035
 20
608.83261114234
 30
0.0
 10
762.4442035022129
 20
609.2989425301637
 30
0.0
 10
761.9318004617563
 20
610.0571573038782
 30
0.0
 10
761.766076516044
 20
610.319696619786
 30
0.0
 10
761.5649622144263
 20
610.6608050363699
 30
0.0
 10
761.5250413629609
 20
610.7296738575945
 30
0.0
 10
761.4457959349538
 20
610.868724629499
 30
0.0
 10
761.4064609333042
 20
610.9389272619569
 30
0.0
 10
761.2896589381855
 20
611.150942383743
 30
0.0
 10
761.2132889231845
 20
611.2943445032819
 30
0.0
 10
760.8386303313979
 20
612.0217191045713
 30
0.0
 10
760.5618860206307
 20
612.636724009624
 30
0.0
 10
760.0472307427585
 20
613.935649963754
 30
0.0
 10
759.8093238515341
 20
614.6195502629979
 30
0.0
 10
759.4767658614891
 20
615.7004671091088
 30
0.0
 10
759.3699685817147
 20
616.0699665413122
 30
0.0
 10
759.2152959758184
 20
616.6386098047631
 30
0.0
 10
759.1393409498644
 20
616.9265320749125
 30
0.0
 10
759.0653570077144
 20
617.2199897135313
 30
0.0
 10
759.0164614875919
 20
617.4168748184208
 30
0.0
 10
758.9922210720819
 20
617.5159694327734
 30
0.0
 10
758.8724936919788
 20
618.0127701615595
 30
0.0
 10
758.6896497259464
 20
618.8189444857271
 30
0.0
 10
758.4383702777765
 20
620.0618338476903
 30
0.0
 10
758.2843609568071
 20
620.9128621675868
 30
0.0
 10
758.1363418399733
 20
621.7752152096135
 30
0.0
 10
758.0653272784684
 20
622.2120537866417
 30
0.0
 10
757.9286630698487
 20
623.0972723532982
 30
0.0
 10
757.8630131852944
 20
623.545651680329
 30
0.0
 10
757.7365967503606
 20
624.4542938361557
 30
0.0
 10
757.6758296900834
 20
624.9145556997198
 30
0.0
 10
757.6173407549084
 20
625.3810052199467
 30
0.0
  0
SPLINE
  5
184
330
1F
100
AcDbEntity
  8
1
  6
Continuous
 62
    30
370
    18
100
AcDbSpline
210
0.0
220
0.0
230
1.0
 70
     8
 71
     3
 72
    40
 73
    36
 74
     0
 42
0.000000001
 43
0.0000000001
 40
0.0
 40
0.0
 40
0.0
 40
0.0
 40
0.018344635148073
 40
0.0386914855384977
 40
0.0554466250767854
 40
0.0718306486351384
 40
0.0934378916202389
 40
0.1162770251143464
 40
0.1404370690715245
 40
0.1658230625906157
 40
0.1923302015923135
 40
0.2198440042853141
 40
0.2482455181788304
 40
0.2774153666879495
 40
0.3072370185732385
 40
0.3375994839553858
 40
0.3683995732343625
 40
0.3995437644331868
 40
0.4309496598644782
 40
0.462546990562595
 40
0.4943276193322088
 40
0.5267563588277935
 40
0.5608610064956999
 40
0.595389765183732
 40
0.6302923325321463
 40
0.6654942764915763
 40
0.7008842250930172
 40
0.7364909331059798
 40
0.7733851665308196
 40
0.8109021399533531
 40
0.8490181197140523
 40
0.8876795113537683
 40
0.9267859436902309
 40
0.9660193523051821
 40
1.0
 40
1.0
 40
1.0
 40
1.0
 10
367.1717154584621
 20
200.4164636222283
 30
0.0
 10
367.1317410259649
 20
200.3973791509544
 30
0.0
 10
367.0323652273232
 20
200.3508104234156
 30
0.0
 10
366.8512274716516
 20
200.2691239741295
 30
0.0
 10
366.6387995555721
 20
200.176503451731
 30
0.0
 10
366.3705450518628
 20
200.0615810777042
 30
0.0
 10
366.0411227124962
 20
199.9224177616916
 30
0.0
 10
365.6260583217124
 20
199.7486610610775
 30
0.0
 10
365.1482965014448
 20
199.5493043869668
 30
0.0
 10
364.6071492570866
 20
199.3229228013562
 30
0.0
 10
364.0047651036635
 20
199.0689086036868
 30
0.0
 10
363.3439238295774
 20
198.7865927358516
 30
0.0
 10
362.6282527043474
 20
198.4754092486584
 30
0.0
 10
361.8619873581653
 20
198.1348692501264
 30
0.0
 10
361.049848864357
 20
197.7645843763997
 30
0.0
 10
360.1968898634075
 20
197.3642730787101
 30
0.0
 10
359.3083561675961
 20
196.9337618963766
 30
0.0
 10
358.3895504194282
 20
196.4729902771633
 30
0.0
 10
357.4457244646728
 20
195.9819646482611
 30
0.0
 10
356.4814282914588
 20
195.4606022478268
 30
0.0
 10
355.4958327426302
 20
194.9054662795298
 30
0.0
 10
354.4794444994461
 20
194.3087448681449
 30
0.0
 10
353.4311458528949
 20
193.6666548851353
 30
0.0
 10
352.3568110124593
 20
192.9791339206741
 30
0.0
 10
351.2736785561036
 20
192.2542310026976
 30
0.0
 10
350.1873612980795
 20
191.4929802763791
 30
0.0
 10
349.1027460706111
 20
190.695666844426
 30
0.0
 10
348.0134267854558
 20
189.8551623089569
 30
0.0
 10
346.9176002727351
 20
188.9677478260563
 30
0.0
 10
345.8147032547296
 20
188.0294368130545
 30
0.0
 10
344.7151841978392
 20
187.0457919186841
 30
0.0
 10
343.623760234608
 20
186.0180159663672
 30
0.0
 10
342.5485505931807
 20
184.9494800490993
 30
0.0
 10
341.542528331381
 20
183.8961238915423
 30
0.0
 10
340.9064539189197
 20
183.1912421777423
 30
0.0
 10
340.6151933146566
 20
182.86026249192
 30
0.0
  0
SPLINE
  5
185
330
1F
100
AcDbEntity
  8
1
  6
Continuous
 62
    30
370
    18
100
AcDbSpline
210
0.0
220
0.0
230
1.0
 70
     8
 71
     3
 72
    40
 73
    36
 74
     0
 42
0.000000001
 43
0.0000000001
 40
0.0
 40
0.0
 40
0.0
 40
0.0
 40
0.0183446351447942
 40
0.0386914855353134
 40
0.0554466250736742
 40
0.0718306486321243
 40
0.0934378916173516
 40
0.1162770251115368
 40
0.1404370690688285
 40
0.1658230625880193
 40
0.1923302015898128
 40
0.2198440042829183
 40
0.2482455181765335
 40
0.2774153666857588
 40
0.3072370185711733
 40
0.3375994839534155
 40
0.3683995732325028
 40
0.3995437644314362
 40
0.4309496598628292
 40
0.4625469905610608
 40
0.4943276193307884
 40
0.5267563588265244
 40
0.5608610064945575
 40
0.5953897651827184
 40
0.6302923325312826
 40
0.6654942764908015
 40
0.7008842250923683
 40
0.7364909331054801
 40
0.7733851665304515
 40
0.8109021399531043
 40
0.8490181197139415
 40
0.8876795113538188
 40
0.92678594369041
 40
0.9660193523055126
 40
1.0
 40
1.0
 40
1.0
 40
1.0
 10
393.1560742130427
 20
95.26546855590618
 30
0.0
 10
393.1960486455353
 20
95.28455302717771
 30
0.0
 10
393.2954244441711
 20
95.33112175471344
 30
0.0
 10
393.4765621998322
 20
95.41280820399479
 30
0.0
 10
393.6889901159125
 20
95.50542872639366
 30
0.0
 10
393.9572446196225
 20
95.62035110042072
 30
0.0
 10
394.2866669589901
 20
95.7595144164338
 30
0.0
 10
394.7017313497748
 20
95.93327111704819
 30
0.0
 10
395.1794931700431
 20
96.13262779115915
 30
0.0
 10
395.720640414402
 20
96.35900937677013
 30
0.0
 10
396.3230245678257
 20
96.61302357443988
 30
0.0
 10
396.9838658419123
 20
96.89533944227526
 30
0.0
 10
397.6995369671428
 20
97.20652292946883
 30
0.0
 10
398.4658023133254
 20
97.54706292800103
 30
0.0
 10
399.2779408071341
 20
97.91734780172817
 30
0.0
 10
400.1308998080841
 20
98.31765909941807
 30
0.0
 10
401.0194335038957
 20
98.74817028175184
 30
0.0
 10
401.9382392520638
 20
99.20894190096539
 30
0.0
 10
402.8820652068193
 20
99.69996752986788
 30
0.0
 10
403.8463613800335
 20
100.2213299303024
 30
0.0
 10
404.8319569288627
 20
100.7764658986
 30
0.0
 10
405.8483451720472
 20
101.3731873099856
 30
0.0
 10
406.8966438185992
 20
102.0152772929958
 30
0.0
 10
407.9709786590352
 20
102.7027982574576
 30
0.0
 10
409.0541111153909
 20
103.4277011754345
 30
0.0
 10
410.140428373415
 20
104.1889519017533
 30
0.0
 10
411.2250436008831
 20
104.9862653337068
 30
0.0
 10
412.3143628860387
 20
105.8267698691764
 30
0.0
 10
413.4101893987594
 20
106.7141843520775
 30
0.0
 10
414.5130864167646
 20
107.6524953650797
 30
0.0
 10
415.612605473655
 20
108.6361402594507
 30
0.0
 10
416.7040294368862
 20
109.6639162117681
 30
0.0
 10
417.7792390783135
 20
110.7324521290367
 30
0.0
 10
418.7852613401089
 20
111.7858082865899
 30
0.0
 10
419.4213357525664
 20
112.4906900003858
 30
0.0
 10
419.7125963568255
 20
112.8216696862039
 30
0.0
  0
SPLINE
  5
186
330
1F
100
AcDbEntity
  8
1
  6
Continuous
 62
    30
370
    18
100
AcDbSpline
210
0.0
220
0.0
230
1.0
 70
     8
 71
     3
 72
    40
 73
    36
 74
     0
 42
0.000000001
 43
0.0000000001
 40
0.0
 40
0.0
 40
0.0
 40
0.0
 40
0.0024647579835283
 40
0.043800974499409
 40
0.0844820819929495
 40
0.1243984427298522
 40
0.1628441579424922
 40
0.2010658258960271
 40
0.2389724990998978
 40
0.2764895107554344
 40
0.3135591192894936
 40
0.3501421088695618
 40
0.3862182272140696
 40
0.4217857332066735
 40
0.4568603734134384
 40
0.4914740923083881
 40
0.5256737335913829
 40
0.5542178363397912
 40
0.5838509307181317
 40
0.6150315960939011
 40
0.6460400769299488
 40
0.6768153362265751
 40
0.7072778201309523
 40
0.737335003379114
 40
0.7668819841221786
 40
0.7958025490463025
 40
0.8239707510974318
 40
0.8512531349570989
 40
0.8775118964013622
 40
0.9026094686748558
 40
0.9264152113688799
 40
0.946446317130098
 40
0.9675179785422762
 40
0.9883968032578585
 40
1.0
 40
1.0
 40
1.0
 40
1.0
 10
340.6141789193724
 20
112.8216241579458
 30
0.0
 10
340.6350123834567
 20
112.7973923576648
 30
0.0
 10
341.0058088094335
 20
112.3672835150343
 30
0.0
 10
341.7525170302895
 20
111.5652189862334
 30
0.0
 10
342.8481348064524
 20
110.4264994678938
 30
0.0
 10
343.9520212156717
 20
109.3506386545338
 30
0.0
 10
345.0587160818304
 20
108.3281108600037
 30
0.0
 10
346.1694047962729
 20
107.3544153922678
 30
0.0
 10
347.2908680820786
 20
106.4196037243053
 30
0.0
 10
348.4177635788707
 20
105.5252974525369
 30
0.0
 10
349.5451024719599
 20
104.6724776203723
 30
0.0
 10
350.6684616568763
 20
103.8616284948459
 30
0.0
 10
351.7840286274447
 20
103.092754904745
 30
0.0
 10
352.8886025855482
 20
102.3654765532577
 30
0.0
 10
353.9797230172202
 20
101.6790274244451
 30
0.0
 10
355.0551622399623
 20
101.0326017117007
 30
0.0
 10
356.0599484607573
 20
100.4558462085128
 30
0.0
 10
357.0049866877583
 20
99.93627965512835
 30
0.0
 10
357.9070132713593
 20
99.45773301934443
 30
0.0
 10
358.8197651757626
 20
98.99088006805923
 30
0.0
 10
359.7254730141214
 20
98.54380103855331
 30
0.0
 10
360.6028181017098
 20
98.12495645251224
 30
0.0
 10
361.4466283270249
 20
97.73437527846875
 30
0.0
 10
362.2515526580094
 20
97.37206147222301
 30
0.0
 10
363.0121531007262
 20
97.03798707361014
 30
0.0
 10
363.7230361421687
 20
96.73209129984099
 30
0.0
 10
364.378983408304
 20
96.45429465186768
 30
0.0
 10
364.9751124460781
 20
96.20451607189456
 30
0.0
 10
365.5070365148513
 20
95.98270350500866
 30
0.0
 10
365.9711210953895
 20
95.78883587526376
 30
0.0
 10
366.3514402831426
 20
95.62852703686744
 30
0.0
 10
366.6648140416177
 20
95.49435274384908
 30
0.0
 10
366.9157321128205
 20
95.38442163821634
 30
0.0
 10
367.0949969861641
 20
95.30340288617838
 30
0.0
 10
367.1825684468685
 20
95.26267257247524
 30
0.0
 10
367.2109326588431
 20
95.2493371922652
 30
0.0
  0
SPLINE
  5
187
330
1F
100
AcDbEntity
  8
1
  6
Continuous
 62
    30
370
    18
100
AcDbSpline
210
0.0
220
0.0
230
1.0
 70
     8
 71
     3
 72
    40
 73
    36
 74
     0
 42
0.000000001
 43
0.0000000001
 40
0.0
 40
0.0
 40
0.0
 40
0.0
 40
0.0024647579835311
 40
0.0438009744993884
 40
0.0844820819929046
 40
0.1243984427297969
 40
0.1628441579424182
 40
0.2010658258959248
 40
0.2389724990997891
 40
0.2764895107553036
 40
0.3135591192893476
 40
0.3501421088693769
 40
0.3862182272138728
 40
0.4217857332064658
 40
0.4568603734132171
 40
0.4914740923081274
 40
0.5256737335911094
 40
0.5542178363395065
 40
0.5838509307178328
 40
0.6150315960935662
 40
0.6460400769296102
 40
0.6768153362262223
 40
0.7072778201305856
 40
0.7373350033787325
 40
0.7668819841217832
 40
0.7958025490458929
 40
0.8239707510969977
 40
0.8512531349566435
 40
0.8775118964008882
 40
0.9026094686743641
 40
0.926415211368395
 40
0.946446317129604
 40
0.967517978541771
 40
0.988396803257344
 40
1.0
 40
1.0
 40
1.0
 40
1.0
 10
419.7136107521097
 20
182.8603080201779
 30
0.0
 10
419.6927772880253
 20
182.884539820459
 30
0.0
 10
419.3219808620485
 20
183.3146486630894
 30
0.0
 10
418.5752726411925
 20
184.1167131918904
 30
0.0
 10
417.4796548650295
 20
185.2554327102301
 30
0.0
 10
416.3757684558101
 20
186.3312935235902
 30
0.0
 10
415.2690735896514
 20
187.3538213181203
 30
0.0
 10
414.1583848752088
 20
188.3275167858563
 30
0.0
 10
413.036921589403
 20
189.2623284538188
 30
0.0
 10
411.9100260926107
 20
190.1566347255873
 30
0.0
 10
410.7826871995217
 20
191.0094545577517
 30
0.0
 10
409.6593280146054
 20
191.8203036832781
 30
0.0
 10
408.543761044037
 20
192.589177273379
 30
0.0
 10
407.4391870859333
 20
193.3164556248664
 30
0.0
 10
406.3480666542613
 20
194.002904753679
 30
0.0
 10
405.2726274315193
 20
194.6493304664232
 30
0.0
 10
404.2678412107244
 20
195.226085969611
 30
0.0
 10
403.3228029837234
 20
195.7456525229956
 30
0.0
 10
402.4207764001225
 20
196.2241991587794
 30
0.0
 10
401.5080244957193
 20
196.6910521100646
 30
0.0
 10
400.6023166573605
 20
197.1381311395704
 30
0.0
 10
399.7249715697719
 20
197.5569757256116
 30
0.0
 10
398.8811613444568
 20
197.9475568996551
 30
0.0
 10
398.0762370134722
 20
198.3098707059009
 30
0.0
 10
397.3156365707554
 20
198.6439451045137
 30
0.0
 10
396.604753529313
 20
198.9498408782829
 30
0.0
 10
395.9488062631778
 20
199.2276375262561
 30
0.0
 10
395.3526772254038
 20
199.4774161062292
 30
0.0
 10
394.8207531566306
 20
199.699228673115
 30
0.0
 10
394.3566685760925
 20
199.89309630286
 30
0.0
 10
393.9763493883393
 20
200.0534051412563
 30
0.0
 10
393.662975629864
 20
200.1875794342747
 30
0.0
 10
393.4120575586613
 20
200.2975105399074
 30
0.0
 10
393.232792685316
 20
200.3785292919462
 30
0.0
 10
393.1452212246105
 20
200.4192596056498
 30
0.0
 10
393.116857012635
 20
200.4325949858604
 30
0.0
  0
SPLINE
  5
188
330
1F
100
AcDbEntity
  8
1
  6
Continuous
 62
    30
370
    13
100
AcDbSpline
210
0.0
220
0.0
230
1.0
 70
     8
 71
     3
 72
    10
 73
     6
 74
     0
 42
0.000000001
 43
0.0000000001
 40
0.0
 40
0.0
 40
0.0
 40
0.0
 40
0.5
 40
0.5
 40
1.0
 40
1.0
 40
1.0
 40
1.0
 10
396.8453683383675
 20
193.1916725948683
 30
0.0
 10
396.7853646175167
 20
193.2652588651236
 30
0.0
 10
396.7400602272113
 20
193.3223527152905
 30
0.0
 10
396.6793264863717
 20
193.4034006983466
 30
0.0
 10
396.6638948357411
 20
193.4273574242183
 30
0.0
 10
396.6638948357411
 20
193.4342770019578
 30
0.0
  0
SPLINE
  5
189
330
1F
100
AcDbEntity
  8
1
  6
Continuous
 62
    30
370
    13
100
AcDbSpline
210
0.0
220
0.0
230
1.0
 70
     8
 71
     3
 72
    10
 73
     6
 74
     0
 42
0.000000001
 43
0.0000000001
 40
0.0
 40
0.0
 40
0.0
 40
0.0
 40
0.5
 40
0.5
 40
1.0
 40
1.0
 40
1.0
 40
1.0
 10
396.6638948357411
 20
102.2476551761658
 30
0.0
 10
396.6638948357411
 20
102.2545747539054
 30
0.0
 10
396.6793264863717
 20
102.2785314797771
 30
0.0
 10
396.7400602272113
 20
102.3595794628332
 30
0.0
 10
396.7853646175167
 20
102.4166733130001
 30
0.0
 10
396.8453683383675
 20
102.4902595832554
 30
0.0
  0
SPLINE
  5
18A
330
1F
100
AcDbEntity
  8
1
  6
Continuous
 62
    30
370
    13
100
AcDbSpline
210
0.0
220
0.0
230
1.0
 70
     8
 71
     3
 72
    10
 73
     6
 74
     0
 42
0.000000001
 43
0.0000000001
 40
0.0
 40
0.0
 40
0.0
 40
0.0
 40
0.5
 40
0.5
 40
1.0
 40
1.0
 40
1.0
 40
1.0
 10
363.6638948357412
 20
193.4342770019578
 30
0.0
 10
363.6638948357412
 20
193.4273574242183
 30
0.0
 10
363.6484631851105
 20
193.4034006983466
 30
0.0
 10
363.587729444271
 20
193.3223527152905
 30
0.0
 10
363.5424250539655
 20
193.2652588651236
 30
0.0
 10
363.4824213331148
 20
193.1916725948683
 30
0.0
  0
SPLINE
  5
18B
330
1F
100
AcDbEntity
  8
1
  6
Continuous
 62
    30
370
    13
100
AcDbSpline
210
0.0
220
0.0
230
1.0
 70
     8
 71
     3
 72
    10
 73
     6
 74
     0
 42
0.000000001
 43
0.0000000001
 40
0.0
 40
0.0
 40
0.0
 40
0.0
 40
0.5
 40
0.5
 40
1.0
 40
1.0
 40
1.0
 40
1.0
 10
363.4824213331146
 20
102.4902595832554
 30
0.0
 10
363.5424250539653
 20
102.4166733130001
 30
0.0
 10
363.5877294442707
 20
102.3595794628332
 30
0.0
 10
363.6484631851103
 20
102.2785314797771
 30
0.0
 10
363.663894835741
 20
102.2545747539054
 30
0.0
 10
363.663894835741
 20
102.2476551761659
 30
0.0
  0
SPLINE
  5
18C
330
1F
100
AcDbEntity
  8
1
  6
Continuous
 62
    30
370
    13
100
AcDbSpline
210
0.0
220
0.0
230
1.0
 70
     8
 71
     3
 72
    61
 73
    57
 74
     0
 42
0.000000001
 43
0.0000000001
 40
0.0
 40
0.0
 40
0.0
 40
0.0
 40
0.0624999999999987
 40
0.0624999999999987
 40
0.1249999999999977
 40
0.1249999999999977
 40
0.1874999999999967
 40
0.1874999999999967
 40
0.2499999999999957
 40
0.2499999999999957
 40
0.2812499999999955
 40
0.2812499999999955
 40
0.2890624999999952
 40
0.2890624999999952
 40
0.296874999999995
 40
0.296874999999995
 40
0.312499999999995
 40
0.312499999999995
 40
0.3749999999999956
 40
0.3749999999999956
 40
0.4374999999999963
 40
0.4374999999999963
 40
0.499999999999997
 40
0.499999999999997
 40
0.5156249999999967
 40
0.5156249999999967
 40
0.5234374999999962
 40
0.5234374999999962
 40
0.5312499999999957
 40
0.5624999999999928
 40
0.5624999999999928
 40
0.6249999999999883
 40
0.6249999999999883
 40
0.6874999999999838
 40
0.6874999999999838
 40
0.7187499999999811
 40
0.7187499999999811
 40
0.726562499999981
 40
0.726562499999981
 40
0.7343749999999808
 40
0.7499999999999816
 40
0.7499999999999816
 40
0.812499999999987
 40
0.812499999999987
 40
0.8749999999999925
 40
0.8749999999999925
 40
0.9062499999999944
 40
0.9062499999999944
 40
0.9140624999999953
 40
0.9140624999999953
 40
0.9218749999999962
 40
0.9218749999999962
 40
0.9374999999999964
 40
0.9374999999999964
 40
0.9687499999999982
 40
1.0
 40
1.0
 40
1.0
 40
1.0
 10
347.163894835741
 20
118.6206643243007
 30
0.0
 10
347.4737739606059
 20
118.0851155838511
 30
0.0
 10
347.7932345398791
 20
117.5574135048206
 30
0.0
 10
348.451613073381
 20
116.518301734996
 30
0.0
 10
348.790531609584
 20
116.0068917930192
 30
0.0
 10
349.4881727190855
 20
115.0010645435278
 30
0.0
 10
349.846896334171
 20
114.5066470414042
 30
0.0
 10
350.5845223935183
 20
113.5356135601764
 30
0.0
 10
350.9634267251881
 20
113.0589975656969
 30
0.0
 10
351.5471879055575
 20
112.3581156579966
 30
0.0
 10
351.7443421350613
 20
112.1268295859038
 30
0.0
 10
351.9940172347507
 20
111.8407268871977
 30
0.0
 10
352.0441138517637
 20
111.7836566078455
 30
0.0
 10
352.1446307812621
 20
111.6698185907492
 30
0.0
 10
352.1950741802895
 20
111.6130252263693
 30
0.0
 10
352.3466064760964
 20
111.4434187576322
 30
0.0
 10
352.4479579946023
 20
111.331309551651
 30
0.0
 10
352.9562857187219
 20
110.7755847316755
 30
0.0
 10
353.3679914712725
 20
110.3464375947381
 30
0.0
 10
354.1991621521843
 20
109.519255627174
 30
0.0
 10
354.6186343170535
 20
109.1212237014566
 30
0.0
 10
355.4624191479851
 20
108.35635483528
 30
0.0
 10
355.8867424608106
 20
107.9895221427463
 30
0.0
 10
356.4178080962446
 20
107.5503587448694
 30
0.0
 10
356.5240516966268
 20
107.4634940748874
 30
0.0
 10
356.6834097666065
 20
107.3346438990039
 30
0.0
 10
356.7364859145648
 20
107.2919692310427
 30
0.0
 10
356.8423034327411
 20
107.2073564135144
 30
0.0
 10
357.106185127854
 20
106.9975237491514
 30
0.0
 10
357.3666445380675
 20
106.7960887275312
 30
0.0
 10
357.9842726979464
 20
106.3279846533411
 30
0.0
 10
358.3860777936049
 20
106.0363747951871
 30
0.0
 10
359.1645925642266
 20
105.4897474123498
 30
0.0
 10
359.54131223338
 20
105.2347293198522
 30
0.0
 10
360.0831395358079
 20
104.8762566738325
 30
0.0
 10
360.2598667525763
 20
104.7607734072022
 30
0.0
 10
360.4753996621163
 20
104.6210662161745
 30
0.0
 10
360.5182623055183
 20
104.5933409280779
 30
0.0
 10
360.6033214076259
 20
104.5384196356752
 30
0.0
 10
360.7297535659993
 20
104.4569329496036
 30
0.0
 10
360.8526991120489
 20
104.3780544802121
 30
0.0
 10
361.2546880293861
 20
104.1205929618914
 30
0.0
 10
361.551254998583
 20
103.9320563157291
 30
0.0
 10
362.0918055205801
 20
103.5824162526369
 30
0.0
 10
362.335803419528
 20
103.4213145847085
 30
0.0
 10
362.6597299885777
 20
103.1958007357732
 30
0.0
 10
362.7606847494667
 20
103.123330814314
 30
0.0
 10
362.8777407543897
 20
103.0357470893719
 30
0.0
 10
362.9006948149785
 20
103.0183807692244
 30
0.0
 10
362.9456784899363
 20
102.9839406308043
 30
0.0
 10
362.967688068634
 20
102.9668819632845
 30
0.0
 10
363.032182632138
 20
102.916239552048
 30
0.0
 10
363.0731690002842
 20
102.8831620930106
 30
0.0
 10
363.1900838119953
 20
102.7858593131892
 30
0.0
 10
363.3298596796769
 20
102.6612582320431
 30
0.0
 10
363.4370884285387
 20
102.5458541250653
 30
0.0
 10
363.4824213331146
 20
102.4902595832554
 30
0.0
  0
SPLINE
  5
18D
330
1F
100
AcDbEntity
  8
1
  6
Continuous
 62
    30
370
    13
100
AcDbSpline
210
0.0
220
0.0
230
1.0
 70
     8
 71
     3
 72
    58
 73
    54
 74
     0
 42
0.000000001
 43
0.0000000001
 40
0.0
 40
0.0
 40
0.0
 40
0.0
 40
0.0312500000000062
 40
0.0312500000000062
 40
0.0625000000000124
 40
0.0625000000000124
 40
0.1250000000000236
 40
0.1250000000000236
 40
0.1875000000000347
 40
0.1875000000000347
 40
0.1953125000000352
 40
0.1953125000000352
 40
0.2031250000000356
 40
0.2187500000000364
 40
0.250000000000037
 40
0.250000000000037
 40
0.3125000000000382
 40
0.3125000000000382
 40
0.3750000000000394
 40
0.3750000000000394
 40
0.382812500000039
 40
0.382812500000039
 40
0.3906250000000386
 40
0.3906250000000386
 40
0.4062500000000371
 40
0.4375000000000341
 40
0.4375000000000341
 40
0.5000000000000272
 40
0.5000000000000272
 40
0.5625000000000202
 40
0.5625000000000202
 40
0.5781250000000185
 40
0.5859375000000181
 40
0.5859375000000181
 40
0.5937500000000177
 40
0.5937500000000177
 40
0.625000000000016
 40
0.625000000000016
 40
0.6875000000000119
 40
0.6875000000000119
 40
0.7500000000000079
 40
0.7500000000000079
 40
0.8125000000000038
 40
0.8125000000000038
 40
0.8203125000000037
 40
0.8203125000000037
 40
0.8281250000000036
 40
0.8437500000000033
 40
0.8750000000000024
 40
0.8750000000000024
 40
0.9375000000000011
 40
0.9375000000000011
 40
1.0
 40
1.0
 40
1.0
 40
1.0
 10
363.4824213331148
 20
193.1916725948683
 30
0.0
 10
363.4371345860977
 20
193.1361346589246
 30
0.0
 10
363.3837058343042
 20
193.0786428335706
 30
0.0
 10
363.2611066256901
 20
192.9594352337047
 30
0.0
 10
363.1919353012768
 20
192.8977192230705
 30
0.0
 10
362.9614164263089
 20
192.7055586572443
 30
0.0
 10
362.7771103937121
 20
192.5681666708839
 30
0.0
 10
362.3492008292651
 20
192.269644696981
 30
0.0
 10
362.1055866110567
 20
192.1085224486652
 30
0.0
 10
361.7984810021819
 20
191.9097776095114
 30
0.0
 10
361.7638876038815
 20
191.8874435847283
 30
0.0
 10
361.6940149967604
 20
191.8424201104813
 30
0.0
 10
361.5880962586984
 20
191.7742991580732
 30
0.0
 10
361.3333108728586
 20
191.6111401884504
 30
0.0
 10
361.1022461646714
 20
191.4636900460167
 30
0.0
 10
360.6242442168669
 20
191.1575877410336
 30
0.0
 10
360.2844335681343
 20
190.938598840764
 30
0.0
 10
359.5673657917793
 20
190.4646765841771
 30
0.0
 10
359.1900979312521
 20
190.2097420650093
 30
0.0
 10
358.7470114015156
 20
189.8990174446677
 30
0.0
 10
358.6975201596526
 20
189.864159920146
 30
0.0
 10
358.5980268881509
 20
189.793766367159
 30
0.0
 10
358.5479998323841
 20
189.7582122230074
 30
0.0
 10
358.3976501999128
 20
189.650860137178
 30
0.0
 10
358.095446495932
 20
189.4330954522097
 30
0.0
 10
357.7891848505269
 20
189.2059710290901
 30
0.0
 10
357.1723530341728
 20
188.7388159701524
 30
0.0
 10
356.7554154997962
 20
188.410156956474
 30
0.0
 10
355.9151799100891
 20
187.7164934468718
 30
0.0
 10
355.4918732501712
 20
187.3514921424695
 30
0.0
 10
354.9614162644603
 20
186.8715972555567
 30
0.0
 10
354.8021774206155
 20
186.7258568564222
 30
0.0
 10
354.6428538530101
 20
186.5774361143516
 30
0.0
 10
354.5366266037726
 20
186.477890967852
 30
0.0
 10
354.4834745558796
 20
186.4277883217116
 30
0.0
 10
354.2181626398622
 20
186.176210613087
 30
0.0
 10
354.0074633998128
 20
185.9716572545225
 30
0.0
 10
353.380367123785
 20
185.3482670636108
 30
0.0
 10
352.9689867258997
 20
184.9196994487583
 30
0.0
 10
352.1610039071621
 20
184.0374259361398
 30
0.0
 10
351.764395102396
 20
183.5837217975206
 30
0.0
 10
350.9869369703146
 20
182.6519914572228
 30
0.0
 10
350.6060835096253
 20
182.1739662014002
 30
0.0
 10
350.1868961374354
 20
181.6229439949676
 30
0.0
 10
350.1404396081044
 20
181.5615234201038
 30
0.0
 10
350.0478920801966
 20
181.4384587468579
 30
0.0
 10
349.9095831250067
 20
181.2534795896952
 30
0.0
 10
349.5904329438555
 20
180.8192039502498
 30
0.0
 10
349.3229437195229
 20
180.4424705589129
 30
0.0
 10
348.7959213333022
 20
179.6831541373331
 30
0.0
 10
348.4551780822451
 20
179.1691471696752
 30
0.0
 10
347.7942529195101
 20
178.1262351001332
 30
0.0
 10
347.474070835561
 20
177.5973296685505
 30
0.0
 10
347.1638948357411
 20
177.0612678538231
 30
0.0
  0
SPLINE
  5
18E
330
1F
100
AcDbEntity
  8
1
  6
Continuous
 62
    30
370
    13
100
AcDbSpline
210
0.0
220
0.0
230
1.0
 70
     8
 71
     3
 72
    49
 73
    45
 74
     0
 42
0.000000001
 43
0.0000000001
 40
0.0
 40
0.0
 40
0.0
 40
0.0
 40
0.0647374908982499
 40
0.0647374908982499
 40
0.1294749817964997
 40
0.1294749817964997
 40
0.1942124726947496
 40
0.1942124726947496
 40
0.2103968454193115
 40
0.2103968454193115
 40
0.2265812181438733
 40
0.2427655908684352
 40
0.2427655908684352
 40
0.258949963592997
 40
0.258949963592997
 40
0.32368745449124
 40
0.32368745449124
 40
0.3884249453894829
 40
0.3884249453894829
 40
0.4531624362877258
 40
0.4531624362877258
 40
0.5178999271859687
 40
0.5178999271859687
 40
0.5340842999105284
 40
0.5340842999105284
 40
0.5502686726350882
 40
0.582637418084209
 40
0.582637418084209
 40
0.64737490898245
 40
0.64737490898245
 40
0.7121123998806907
 40
0.7121123998806907
 40
0.7768498907789317
 40
0.7768498907789317
 40
0.8415873816771726
 40
0.8415873816771726
 40
0.9063248725754135
 40
0.9063248725754135
 40
0.9386936180245335
 40
0.954877990749093
 40
0.954877990749093
 40
0.9710623634736522
 40
0.9710623634736522
 40
1.0
 40
1.0
 40
1.0
 40
1.0
 10
363.663894835741
 20
120.6644596910717
 30
0.0
 10
363.663894835741
 20
120.7101519614188
 30
0.0
 10
363.6489673102755
 20
120.7763674758534
 30
0.0
 10
363.5920399532935
 20
120.9465561940221
 30
0.0
 10
363.5500323087825
 20
121.0505380223186
 30
0.0
 10
363.4409785438844
 20
121.2938627891909
 30
0.0
 10
363.3739274790202
 20
121.4332112150174
 30
0.0
 10
363.2753988585336
 20
121.6284120639307
 30
0.0
 10
363.2549362280542
 20
121.6685430797753
 30
0.0
 10
363.2126787555691
 20
121.7506507874922
 30
0.0
 10
363.1690894246925
 20
121.8346054208742
 30
0.0
 10
363.1229117893582
 20
121.9221594699629
 30
0.0
 10
363.07547501822
 20
122.0114693555312
 30
0.0
 10
363.0511101809834
 20
122.0570335429739
 30
0.0
 10
362.9264215858853
 20
122.2887671264749
 30
0.0
 10
362.8178978163223
 20
122.4859708702123
 30
0.0
 10
362.5857444449398
 20
122.9009607996417
 30
0.0
 10
362.4621062006739
 20
123.1187574687106
 30
0.0
 10
362.2015073375741
 20
123.5726937702061
 30
0.0
 10
362.0645414984643
 20
123.8088397680603
 30
0.0
 10
361.7786424455968
 20
124.297769953707
 30
0.0
 10
361.629705918123
 20
124.5505581998708
 30
0.0
 10
361.4367115893336
 20
124.8761171347013
 30
0.0
 10
361.3977419480312
 20
124.941757084883
 30
0.0
 10
361.3192871834163
 20
125.073719254809
 30
0.0
 10
361.2008732421158
 20
125.2726166327324
 30
0.0
 10
361.0803393381408
 20
125.4742866712091
 30
0.0
 10
360.8366221962939
 20
125.8811124723866
 30
0.0
 10
360.6706175641957
 20
126.1569702998045
 30
0.0
 10
360.3323314108637
 20
126.7170410977958
 30
0.0
 10
360.1600480626886
 20
127.001256191807
 30
0.0
 10
359.8098081022123
 20
127.5773204071781
 30
0.0
 10
359.631850275869
 20
127.8691709445507
 30
0.0
 10
359.2707423321469
 20
128.4599318414777
 30
0.0
 10
359.0875913810153
 20
128.7588431761515
 30
0.0
 10
358.716485428003
 20
129.3632634210435
 30
0.0
 10
358.5285298378237
 20
129.6687730204861
 30
0.0
 10
358.2432306926537
 20
130.131704564593
 30
0.0
 10
358.0997389164698
 20
130.3643380565061
 30
0.0
 10
357.9550222264578
 20
130.5986779303677
 30
0.0
 10
357.8582761110993
 20
130.7552791619531
 30
0.0
 10
357.8097585794156
 20
130.8337837687317
 30
0.0
 10
357.6743303348708
 20
131.0528353713584
 30
0.0
 10
357.5872379463602
 20
131.1936132787292
 30
0.0
 10
357.4999145746185
 20
131.3346784041546
 30
0.0
  0
SPLINE
  5
18F
330
1F
100
AcDbEntity
  8
1
  6
Continuous
 62
    30
370
    13
100
AcDbSpline
210
0.0
220
0.0
230
1.0
 70
     8
 71
     3
 72
    49
 73
    45
 74
     0
 42
0.000000001
 43
0.0000000001
 40
0.0
 40
0.0
 40
0.0
 40
0.0
 40
0.0292204600564202
 40
0.0292204600564202
 40
0.0454001190554781
 40
0.0454001190554781
 40
0.0615797780545362
 40
0.0939390960526538
 40
0.0939390960526538
 40
0.1586577320488898
 40
0.1586577320488898
 40
0.2233763680451259
 40
0.2233763680451259
 40
0.288095004041362
 40
0.288095004041362
 40
0.352813640037598
 40
0.352813640037598
 40
0.4175322760338341
 40
0.4175322760338341
 40
0.4498915940319526
 40
0.4660712530310111
 40
0.4660712530310111
 40
0.4822509120300699
 40
0.4822509120300699
 40
0.5469695480263085
 40
0.5469695480263085
 40
0.6116881840225469
 40
0.6116881840225469
 40
0.6764068200187854
 40
0.6764068200187854
 40
0.741125456015024
 40
0.741125456015024
 40
0.7573051150140844
 40
0.7573051150140844
 40
0.7734847740131451
 40
0.7896644330122057
 40
0.7896644330122057
 40
0.805844092011266
 40
0.805844092011266
 40
0.8705627280075109
 40
0.8705627280075109
 40
0.9352813640037554
 40
0.9352813640037554
 40
1.0
 40
1.0
 40
1.0
 40
1.0
 10
357.4972770581397
 20
164.3429930668466
 30
0.0
 10
357.5854842755332
 20
164.4854842394894
 30
0.0
 10
357.6734559236082
 20
164.6276824696815
 30
0.0
 10
357.8097585794158
 20
164.8481484093921
 30
0.0
 10
357.8582761110993
 20
164.9266530161707
 30
0.0
 10
357.9550222264579
 20
165.0832542477561
 30
0.0
 10
358.09973891647
 20
165.3175941216176
 30
0.0
 10
358.2432306926538
 20
165.5502276135307
 30
0.0
 10
358.5285298378238
 20
166.0131591576376
 30
0.0
 10
358.7164854280031
 20
166.3186687570803
 30
0.0
 10
359.0875913810154
 20
166.9230890019723
 30
0.0
 10
359.270742332147
 20
167.2220003366461
 30
0.0
 10
359.6318502758691
 20
167.812761233573
 30
0.0
 10
359.8098081022123
 20
168.1046117709456
 30
0.0
 10
360.1600480626887
 20
168.6806759863167
 30
0.0
 10
360.3323314108637
 20
168.9648910803279
 30
0.0
 10
360.6706175641958
 20
169.5249618783192
 30
0.0
 10
360.836622196294
 20
169.8008197057372
 30
0.0
 10
361.0803393381409
 20
170.2076455069146
 30
0.0
 10
361.200873242116
 20
170.4093155453913
 30
0.0
 10
361.3192871834164
 20
170.6082129233147
 30
0.0
 10
361.3977419480313
 20
170.7401750932408
 30
0.0
 10
361.4367115893337
 20
170.8058150434224
 30
0.0
 10
361.6297059181231
 20
171.1313739782529
 30
0.0
 10
361.7786424455969
 20
171.3841622244167
 30
0.0
 10
362.0645414984645
 20
171.8730924100634
 30
0.0
 10
362.2015073375742
 20
172.1092384079176
 30
0.0
 10
362.462106200674
 20
172.5631747094132
 30
0.0
 10
362.5857444449399
 20
172.780971378482
 30
0.0
 10
362.8178978163224
 20
173.1959613079114
 30
0.0
 10
362.9264215858854
 20
173.3931650516489
 30
0.0
 10
363.0511101809835
 20
173.6248986351499
 30
0.0
 10
363.0754750182201
 20
173.6704628225925
 30
0.0
 10
363.1229117893583
 20
173.7597727081609
 30
0.0
 10
363.1690894328222
 20
173.8473267670363
 30
0.0
 10
363.2126787555693
 20
173.9312813906315
 30
0.0
 10
363.2549362280544
 20
174.0133890983484
 30
0.0
 10
363.2753988585338
 20
174.053520114193
 30
0.0
 10
363.3739274790203
 20
174.2487209631063
 30
0.0
 10
363.4409785438846
 20
174.3880693889328
 30
0.0
 10
363.5500323087826
 20
174.6313941558051
 30
0.0
 10
363.5920399532936
 20
174.7353759841017
 30
0.0
 10
363.6489673102756
 20
174.9055647022703
 30
0.0
 10
363.6638948357411
 20
174.9717802167049
 30
0.0
 10
363.6638948357411
 20
175.017472487052
 30
0.0
  0
SPLINE
  5
190
330
1F
100
AcDbEntity
  8
1
  6
Continuous
 62
    30
370
    18
100
AcDbSpline
210
0.0
220
0.0
230
1.0
 70
    24
 71
     3
 72
     8
 73
     4
 74
     0
 42
0.000000001
 43
0.0000000001
 40
0.0
 40
0.0
 40
0.0
 40
0.0
 40
1.0
 40
1.0
 40
1.0
 40
1.0
 10
397.1638948357411
 20
130.8757550703364
 30
0.0
 10
397.1638948357411
 20
130.868147903802
 30
0.0
 10
397.1638948357411
 20
130.8605407372676
 30
0.0
 10
397.1638948357411
 20
130.8529335707331
 30
0.0
  0
SPLINE
  5
191
330
1F
100
AcDbEntity
  8
1
  6
Continuous
 62
    30
370
    18
100
AcDbSpline
210
0.0
220
0.0
230
1.0
 70
    24
 71
     3
 72
     8
 73
     4
 74
     0
 42
0.000000001
 43
0.0000000001
 40
0.0
 40
0.0
 40
0.0
 40
0.0
 40
1.0
 40
1.0
 40
1.0
 40
1.0
 10
363.1638948357411
 20
164.8061771077872
 30
0.0
 10
363.1638948357411
 20
164.8137842743217
 30
0.0
 10
363.1638948357411
 20
164.8213914408561
 30
0.0
 10
363.1638948357411
 20
164.8289986073906
 30
0.0
  0
SPLINE
  5
192
330
1F
100
AcDbEntity
  8
1
  6
Continuous
 62
    30
370
    18
100
AcDbSpline
210
0.0
220
0.0
230
1.0
 70
    24
 71
     3
 72
     8
 73
     4
 74
     0
 42
0.000000001
 43
0.0000000001
 40
0.0
 40
0.0
 40
0.0
 40
0.0
 40
1.0
 40
1.0
 40
1.0
 40
1.0
 10
397.1638948357411
 20
130.5158138793639
 30
0.0
 10
397.1638948357411
 20
130.2136018997688
 30
0.0
 10
397.1638948357411
 20
129.9113899201737
 30
0.0
 10
397.1638948357411
 20
129.6091779405786
 30
0.0
  0
SPLINE
  5
193
330
1F
100
AcDbEntity
  8
1
  6
Continuous
 62
    30
370
    18
100
AcDbSpline
210
0.0
220
0.0
230
1.0
 70
    24
 71
     3
 72
     8
 73
     4
 74
     0
 42
0.000000001
 43
0.0000000001
 40
0.0
 40
0.0
 40
0.0
 40
0.0
 40
1.0
 40
1.0
 40
1.0
 40
1.0
 10
363.1638948357411
 20
164.8289986073906
 30
0.0
 10
363.1638948357411
 20
164.941371837847
 30
0.0
 10
363.1638948357411
 20
165.0537450683034
 30
0.0
 10
363.1638948357411
 20
165.1661182987598
 30
0.0
  0
SPLINE
  5
194
330
1F
100
AcDbEntity
  8
1
  6
Continuous
 62
    30
370
    18
100
AcDbSpline
210
0.0
220
0.0
230
1.0
 70
    24
 71
     3
 72
     8
 73
     4
 74
     0
 42
0.000000001
 43
0.0000000001
 40
0.0
 40
0.0
 40
0.0
 40
0.0
 40
1.0
 40
1.0
 40
1.0
 40
1.0
 10
363.1638948357411
 20
165.1661182987598
 30
0.0
 10
363.1638948357411
 20
165.4683302783549
 30
0.0
 10
363.1638948357411
 20
165.77054225795
 30
0.0
 10
363.1638948357411
 20
166.0727542375451
 30
0.0
  0
SPLINE
  5
195
330
1F
100
AcDbEntity
  8
1
  6
Continuous
 62
    30
370
    18
100
AcDbSpline
210
0.0
220
0.0
230
1.0
 70
    24
 71
     3
 72
     8
 73
     4
 74
     0
 42
0.000000001
 43
0.0000000001
 40
0.0
 40
0.0
 40
0.0
 40
0.0
 40
1.0
 40
1.0
 40
1.0
 40
1.0
 10
397.1638948357411
 20
130.8529335707331
 30
0.0
 10
397.1638948357411
 20
130.7405603402767
 30
0.0
 10
397.1638948357411
 20
130.6281871098203
 30
0.0
 10
397.1638948357411
 20
130.5158138793639
 30
0.0
  0
SPLINE
  5
196
330
1F
100
AcDbEntity
  8
1
  6
Continuous
 62
    30
370
    18
100
AcDbSpline
210
0.0
220
0.0
230
1.0
 70
    24
 71
     3
 72
     8
 73
     4
 74
     0
 42
0.000000001
 43
0.0000000001
 40
0.0
 40
0.0
 40
0.0
 40
0.0
 40
1.0
 40
1.0
 40
1.0
 40
1.0
 10
397.1638948357411
 20
131.3257410703364
 30
0.0
 10
397.1638948357411
 20
131.0835639319462
 30
0.0
 10
397.1638948357411
 20
130.9333541356536
 30
0.0
 10
397.1638948357411
 20
130.8757550703364
 30
0.0
  0
SPLINE
  5
197
330
1F
100
AcDbEntity
  8
1
  6
Continuous
 62
    30
370
    18
100
AcDbSpline
210
0.0
220
0.0
230
1.0
 70
    24
 71
     3
 72
     8
 73
     4
 74
     0
 42
0.000000001
 43
0.0000000001
 40
0.0
 40
0.0
 40
0.0
 40
0.0
 40
1.0
 40
1.0
 40
1.0
 40
1.0
 10
363.1638948357411
 20
164.3561911077873
 30
0.0
 10
363.1638948357411
 20
164.5983682461775
 30
0.0
 10
363.1638948357411
 20
164.7485780424701
 30
0.0
 10
363.1638948357411
 20
164.8061771077872
 30
0.0
  0
SPLINE
  5
198
330
1F
100
AcDbEntity
  8
1
  6
Continuous
 62
    30
370
    13
100
AcDbSpline
210
0.0
220
0.0
230
1.0
 70
     8
 71
     3
 72
    58
 73
    54
 74
     0
 42
0.000000001
 43
0.0000000001
 40
0.0
 40
0.0
 40
0.0
 40
0.0
 40
0.031250000000007
 40
0.031250000000007
 40
0.062500000000014
 40
0.062500000000014
 40
0.1250000000000268
 40
0.1250000000000268
 40
0.1875000000000397
 40
0.1875000000000397
 40
0.1953125000000401
 40
0.1953125000000401
 40
0.2031250000000406
 40
0.2187500000000414
 40
0.250000000000042
 40
0.250000000000042
 40
0.3125000000000433
 40
0.3125000000000433
 40
0.3750000000000446
 40
0.3750000000000446
 40
0.3828125000000442
 40
0.3828125000000442
 40
0.3906250000000439
 40
0.3906250000000439
 40
0.4062500000000437
 40
0.4375000000000432
 40
0.4375000000000432
 40
0.5000000000000411
 40
0.5000000000000411
 40
0.5625000000000391
 40
0.5625000000000391
 40
0.5781250000000385
 40
0.585937500000038
 40
0.585937500000038
 40
0.5937500000000374
 40
0.5937500000000374
 40
0.6250000000000351
 40
0.6250000000000351
 40
0.6875000000000302
 40
0.6875000000000302
 40
0.7500000000000253
 40
0.7500000000000253
 40
0.8125000000000204
 40
0.8125000000000204
 40
0.8203125000000195
 40
0.8203125000000195
 40
0.8281250000000188
 40
0.8437500000000172
 40
0.8750000000000135
 40
0.8750000000000135
 40
0.937500000000007
 40
0.937500000000007
 40
1.0
 40
1.0
 40
1.0
 40
1.0
 10
396.8453683383675
 20
102.4902595832554
 30
0.0
 10
396.8906550853846
 20
102.545797519199
 30
0.0
 10
396.944083837178
 20
102.6032893445531
 30
0.0
 10
397.0666830457922
 20
102.722496944419
 30
0.0
 10
397.1358543702054
 20
102.7842129550532
 30
0.0
 10
397.3663732451734
 20
102.9763735208794
 30
0.0
 10
397.5506792777701
 20
103.1137655072398
 30
0.0
 10
397.9785888422172
 20
103.4122874811427
 30
0.0
 10
398.2222030604255
 20
103.5734097294585
 30
0.0
 10
398.5293086693003
 20
103.7721545686123
 30
0.0
 10
398.5639020676007
 20
103.7944885933954
 30
0.0
 10
398.6337746747218
 20
103.8395120676424
 30
0.0
 10
398.7396934127838
 20
103.9076330200505
 30
0.0
 10
398.9944787986237
 20
104.0707919896733
 30
0.0
 10
399.2255435068108
 20
104.218242132107
 30
0.0
 10
399.7035454546153
 20
104.5243444370901
 30
0.0
 10
400.0433561033479
 20
104.7433333373597
 30
0.0
 10
400.760423879703
 20
105.2172555939465
 30
0.0
 10
401.1376917402302
 20
105.4721901131144
 30
0.0
 10
401.5807782699666
 20
105.782914733456
 30
0.0
 10
401.6302695118297
 20
105.8177722579777
 30
0.0
 10
401.7297627833314
 20
105.8881658109646
 30
0.0
 10
401.7797898390982
 20
105.9237199551163
 30
0.0
 10
401.9301394715694
 20
106.0310720409457
 30
0.0
 10
402.2323431755502
 20
106.248836725914
 30
0.0
 10
402.5386048209554
 20
106.4759611490337
 30
0.0
 10
403.1554366373094
 20
106.9431162079713
 30
0.0
 10
403.572374171686
 20
107.2717752216497
 30
0.0
 10
404.4126097613932
 20
107.9654387312519
 30
0.0
 10
404.835916421311
 20
108.3304400356542
 30
0.0
 10
405.3663734070219
 20
108.8103349225671
 30
0.0
 10
405.5256122508667
 20
108.9560753217015
 30
0.0
 10
405.6849358184722
 20
109.1044960637721
 30
0.0
 10
405.7911630677097
 20
109.2040412102717
 30
0.0
 10
405.8443151156026
 20
109.2541438564121
 30
0.0
 10
406.10962703162
 20
109.5057215650367
 30
0.0
 10
406.3203262716694
 20
109.7102749236012
 30
0.0
 10
406.9474225476972
 20
110.3336651145129
 30
0.0
 10
407.3588029455825
 20
110.7622327293655
 30
0.0
 10
408.1667857643201
 20
111.6445062419839
 30
0.0
 10
408.5633945690863
 20
112.0982103806031
 30
0.0
 10
409.3408527011676
 20
113.0299407209009
 30
0.0
 10
409.721706161857
 20
113.5079659767235
 30
0.0
 10
410.1408935340468
 20
114.0589881831561
 30
0.0
 10
410.1873500633778
 20
114.12040875802
 30
0.0
 10
410.2798975912856
 20
114.2434734312658
 30
0.0
 10
410.4182065464755
 20
114.4284525884285
 30
0.0
 10
410.7373567276267
 20
114.862728227874
 30
0.0
 10
411.0048459519593
 20
115.2394616192108
 30
0.0
 10
411.5318683381801
 20
115.9987780407907
 30
0.0
 10
411.8726115892371
 20
116.5127850084485
 30
0.0
 10
412.5335367519721
 20
117.5556970779905
 30
0.0
 10
412.8537188359213
 20
118.0846025095732
 30
0.0
 10
413.1638948357411
 20
118.6206643243006
 30
0.0
  0
SPLINE
  5
199
330
1F
100
AcDbEntity
  8
1
  6
Continuous
 62
    30
370
    13
100
AcDbSpline
210
0.0
220
0.0
230
1.0
 70
     8
 71
     3
 72
    61
 73
    57
 74
     0
 42
0.000000001
 43
0.0000000001
 40
0.0
 40
0.0
 40
0.0
 40
0.0
 40
0.0624999999999949
 40
0.0624999999999949
 40
0.12499999999999
 40
0.12499999999999
 40
0.1874999999999852
 40
0.1874999999999852
 40
0.2499999999999803
 40
0.2499999999999803
 40
0.2812499999999782
 40
0.2812499999999782
 40
0.289062499999978
 40
0.289062499999978
 40
0.2968749999999779
 40
0.2968749999999779
 40
0.3124999999999776
 40
0.3124999999999776
 40
0.3749999999999777
 40
0.3749999999999777
 40
0.4374999999999778
 40
0.4374999999999778
 40
0.4999999999999779
 40
0.4999999999999779
 40
0.5156249999999775
 40
0.5156249999999775
 40
0.523437499999977
 40
0.523437499999977
 40
0.5312499999999765
 40
0.5624999999999755
 40
0.5624999999999755
 40
0.6249999999999744
 40
0.6249999999999744
 40
0.6874999999999735
 40
0.6874999999999735
 40
0.7187499999999727
 40
0.7187499999999727
 40
0.7265624999999729
 40
0.7265624999999729
 40
0.7343749999999732
 40
0.7499999999999748
 40
0.7499999999999748
 40
0.8124999999999841
 40
0.8124999999999841
 40
0.8749999999999933
 40
0.8749999999999933
 40
0.9062499999999974
 40
0.9062499999999974
 40
0.9140624999999976
 40
0.9140624999999976
 40
0.9218749999999976
 40
0.9218749999999976
 40
0.9374999999999976
 40
0.9374999999999976
 40
0.9687499999999988
 40
1.0
 40
1.0
 40
1.0
 40
1.0
 10
413.1638948357411
 20
177.061267853823
 30
0.0
 10
412.8540157108762
 20
177.5968165942726
 30
0.0
 10
412.534555131603
 20
178.1245186733031
 30
0.0
 10
411.8761765981011
 20
179.1636304431277
 30
0.0
 10
411.5372580618981
 20
179.6750403851045
 30
0.0
 10
410.8396169523966
 20
180.6808676345959
 30
0.0
 10
410.480893337311
 20
181.1752851367195
 30
0.0
 10
409.7432672779638
 20
182.1463186179473
 30
0.0
 10
409.364362946294
 20
182.6229346124268
 30
0.0
 10
408.7806017659246
 20
183.3238165201271
 30
0.0
 10
408.5834475364207
 20
183.5551025922199
 30
0.0
 10
408.3337724367314
 20
183.841205290926
 30
0.0
 10
408.2836758197184
 20
183.8982755702782
 30
0.0
 10
408.1831588902199
 20
184.0121135873745
 30
0.0
 10
408.1327154911926
 20
184.0689069517544
 30
0.0
 10
407.9811831953856
 20
184.2385134204916
 30
0.0
 10
407.8798316768797
 20
184.3506226264727
 30
0.0
 10
407.3715039527602
 20
184.9063474464482
 30
0.0
 10
406.9597982002095
 20
185.3354945833856
 30
0.0
 10
406.1286275192978
 20
186.1626765509497
 30
0.0
 10
405.7091553544285
 20
186.5607084766671
 30
0.0
 10
404.8653705234969
 20
187.3255773428438
 30
0.0
 10
404.4410472106715
 20
187.6924100353774
 30
0.0
 10
403.9099815752375
 20
188.1315734332543
 30
0.0
 10
403.8037379748552
 20
188.2184381032363
 30
0.0
 10
403.6443799048755
 20
188.3472882791199
 30
0.0
 10
403.5913037569172
 20
188.389962947081
 30
0.0
 10
403.485486238741
 20
188.4745757646093
 30
0.0
 10
403.2216045436281
 20
188.6844084289723
 30
0.0
 10
402.9611451334146
 20
188.8858434505925
 30
0.0
 10
402.3435169735356
 20
189.3539475247826
 30
0.0
 10
401.9417118778771
 20
189.6455573829366
 30
0.0
 10
401.1631971072554
 20
190.1921847657739
 30
0.0
 10
400.786477438102
 20
190.4472028582715
 30
0.0
 10
400.2446501356741
 20
190.8056755042912
 30
0.0
 10
400.0679229189058
 20
190.9211587709215
 30
0.0
 10
399.8523900093658
 20
191.0608659619492
 30
0.0
 10
399.8095273659637
 20
191.0885912500458
 30
0.0
 10
399.7244682638561
 20
191.1435125424485
 30
0.0
 10
399.5980361054827
 20
191.2249992285201
 30
0.0
 10
399.4750905594331
 20
191.3038776979115
 30
0.0
 10
399.0731016420959
 20
191.5613392162323
 30
0.0
 10
398.776534672899
 20
191.7498758623946
 30
0.0
 10
398.235984150902
 20
192.0995159254868
 30
0.0
 10
397.9919862519541
 20
192.2606175934152
 30
0.0
 10
397.6680596829044
 20
192.4861314423505
 30
0.0
 10
397.5671049220153
 20
192.5586013638097
 30
0.0
 10
397.4500489170924
 20
192.6461850887518
 30
0.0
 10
397.4270948565036
 20
192.6635514088993
 30
0.0
 10
397.3821111815458
 20
192.6979915473194
 30
0.0
 10
397.360101602848
 20
192.7150502148392
 30
0.0
 10
397.2956070393441
 20
192.7656926260756
 30
0.0
 10
397.2546206711979
 20
192.7987700851131
 30
0.0
 10
397.1377058594867
 20
192.8960728649345
 30
0.0
 10
396.9979305050904
 20
193.0206739838992
 30
0.0
 10
396.8907012429434
 20
193.1360780530584
 30
0.0
 10
396.8453683383675
 20
193.1916725948683
 30
0.0
  0
SPLINE
  5
19A
330
1F
100
AcDbEntity
  8
1
  6
Continuous
 62
    30
370
    13
100
AcDbSpline
210
0.0
220
0.0
230
1.0
 70
     8
 71
     3
 72
    49
 73
    45
 74
     0
 42
0.000000001
 43
0.0000000001
 40
0.0
 40
0.0
 40
0.0
 40
0.0
 40
0.0291262240481677
 40
0.0291262240481677
 40
0.0453074536473639
 40
0.0453074536473639
 40
0.06148868324656
 40
0.0938511424449522
 40
0.0938511424449522
 40
0.158576060841738
 40
0.158576060841738
 40
0.2233009792385243
 40
0.2233009792385243
 40
0.2880258976353102
 40
0.2880258976353102
 40
0.3527508160320965
 40
0.3527508160320965
 40
0.4174757344288824
 40
0.4174757344288824
 40
0.4498381936272764
 40
0.4660194232264726
 40
0.4660194232264726
 40
0.4822006528256687
 40
0.4822006528256687
 40
0.546925571222457
 40
0.546925571222457
 40
0.6116504896192454
 40
0.6116504896192454
 40
0.6763754080160338
 40
0.6763754080160338
 40
0.7411003264128221
 40
0.7411003264128221
 40
0.7572815560120205
 40
0.7572815560120205
 40
0.7734627856112187
 40
0.7896440152104169
 40
0.7896440152104169
 40
0.8058252448096154
 40
0.8058252448096154
 40
0.8705501632064101
 40
0.8705501632064101
 40
0.9352750816032049
 40
0.9352750816032049
 40
1.0
 40
1.0
 40
1.0
 40
1.0
 10
402.8296336139289
 20
131.3375191604307
 30
0.0
 10
402.7417209588434
 20
131.1955032477652
 30
0.0
 10
402.6540423398962
 20
131.0537783637476
 30
0.0
 10
402.5180310920665
 20
130.8337837687316
 30
0.0
 10
402.4695135603828
 20
130.755279161953
 30
0.0
 10
402.3727674450244
 20
130.5986779303676
 30
0.0
 10
402.2280507550122
 20
130.3643380565061
 30
0.0
 10
402.0845589788284
 20
130.131704564593
 30
0.0
 10
401.7992598336584
 20
129.6687730204861
 30
0.0
 10
401.6113042434791
 20
129.3632634210434
 30
0.0
 10
401.2401982904668
 20
128.7588431761514
 30
0.0
 10
401.0570473393352
 20
128.4599318414776
 30
0.0
 10
400.6959393956131
 20
127.8691709445507
 30
0.0
 10
400.5179815692698
 20
127.5773204071781
 30
0.0
 10
400.1677416087934
 20
127.001256191807
 30
0.0
 10
399.9954582606184
 20
126.7170410977958
 30
0.0
 10
399.6571721072863
 20
126.1569702998045
 30
0.0
 10
399.4911674751882
 20
125.8811124723865
 30
0.0
 10
399.2474503333412
 20
125.4742866712091
 30
0.0
 10
399.1269164293662
 20
125.2726166327324
 30
0.0
 10
399.0085024880658
 20
125.0737192548089
 30
0.0
 10
398.9300477234509
 20
124.9417570848829
 30
0.0
 10
398.8910780821485
 20
124.8761171347012
 30
0.0
 10
398.6980837533591
 20
124.5505581998708
 30
0.0
 10
398.5491472258853
 20
124.297769953707
 30
0.0
 10
398.2632481730178
 20
123.8088397680603
 30
0.0
 10
398.126282333908
 20
123.5726937702061
 30
0.0
 10
397.8656834708082
 20
123.1187574687105
 30
0.0
 10
397.7420452265423
 20
122.9009607996416
 30
0.0
 10
397.5098918551598
 20
122.4859708702122
 30
0.0
 10
397.4013680855968
 20
122.2887671264748
 30
0.0
 10
397.2766794904987
 20
122.0570335429738
 30
0.0
 10
397.2523146532621
 20
122.0114693555312
 30
0.0
 10
397.2048778821239
 20
121.9221594699628
 30
0.0
 10
397.15870023866
 20
121.8346054110873
 30
0.0
 10
397.115110915913
 20
121.7506507874922
 30
0.0
 10
397.0728534434278
 20
121.6685430797753
 30
0.0
 10
397.0523908129485
 20
121.6284120639307
 30
0.0
 10
396.9538621924618
 20
121.4332112150174
 30
0.0
 10
396.8868111275976
 20
121.2938627891908
 30
0.0
 10
396.7777573626996
 20
121.0505380223186
 30
0.0
 10
396.7357497181886
 20
120.946556194022
 30
0.0
 10
396.6788223612066
 20
120.7763674758534
 30
0.0
 10
396.6638948357411
 20
120.7101519614188
 30
0.0
 10
396.6638948357411
 20
120.6644596910717
 30
0.0
  0
SPLINE
  5
19B
330
1F
100
AcDbEntity
  8
1
  6
Continuous
 62
    30
370
    13
100
AcDbSpline
210
0.0
220
0.0
230
1.0
 70
     8
 71
     3
 72
    49
 73
    45
 74
     0
 42
0.000000001
 43
0.0000000001
 40
0.0
 40
0.0
 40
0.0
 40
0.0
 40
0.0647374908984558
 40
0.0647374908984558
 40
0.1294749817969116
 40
0.1294749817969116
 40
0.1942124726953673
 40
0.1942124726953673
 40
0.2103968454199808
 40
0.2103968454199808
 40
0.2265812181445942
 40
0.2427655908692077
 40
0.2427655908692077
 40
0.2589499635938212
 40
0.2589499635938212
 40
0.3236874544922704
 40
0.3236874544922704
 40
0.3884249453907197
 40
0.3884249453907197
 40
0.453162436289169
 40
0.453162436289169
 40
0.5178999271876182
 40
0.5178999271876182
 40
0.5340842999122296
 40
0.5340842999122296
 40
0.5502686726368408
 40
0.5826374180860652
 40
0.5826374180860652
 40
0.6473749089845121
 40
0.6473749089845121
 40
0.712112399882959
 40
0.712112399882959
 40
0.7768498907814059
 40
0.7768498907814059
 40
0.8415873816798528
 40
0.8415873816798528
 40
0.9063248725782997
 40
0.9063248725782997
 40
0.9386936180275224
 40
0.9548779907521336
 40
0.9548779907521336
 40
0.9710623634767448
 40
0.9710623634767448
 40
1.0
 40
1.0
 40
1.0
 40
1.0
 10
396.6638948357411
 20
175.017472487052
 30
0.0
 10
396.6638948357411
 20
174.9717802167048
 30
0.0
 10
396.6788223612066
 20
174.9055647022703
 30
0.0
 10
396.7357497181886
 20
174.7353759841016
 30
0.0
 10
396.7777573626996
 20
174.6313941558051
 30
0.0
 10
396.8868111275976
 20
174.3880693889328
 30
0.0
 10
396.9538621924618
 20
174.2487209631063
 30
0.0
 10
397.0523908129485
 20
174.053520114193
 30
0.0
 10
397.0728534434278
 20
174.0133890983483
 30
0.0
 10
397.115110915913
 20
173.9312813906315
 30
0.0
 10
397.15870023866
 20
173.8473267670363
 30
0.0
 10
397.2048778821239
 20
173.7597727081608
 30
0.0
 10
397.2523146532621
 20
173.6704628225925
 30
0.0
 10
397.2766794904987
 20
173.6248986351498
 30
0.0
 10
397.4013680855968
 20
173.3931650516488
 30
0.0
 10
397.5098918551598
 20
173.1959613079114
 30
0.0
 10
397.7420452265423
 20
172.780971378482
 30
0.0
 10
397.8656834708082
 20
172.5631747094131
 30
0.0
 10
398.126282333908
 20
172.1092384079176
 30
0.0
 10
398.2632481730178
 20
171.8730924100634
 30
0.0
 10
398.5491472258853
 20
171.3841622244166
 30
0.0
 10
398.6980837533591
 20
171.1313739782529
 30
0.0
 10
398.8910780821485
 20
170.8058150434224
 30
0.0
 10
398.9300477234509
 20
170.7401750932407
 30
0.0
 10
399.0085024880658
 20
170.6082129233147
 30
0.0
 10
399.1269164293662
 20
170.4093155453913
 30
0.0
 10
399.2474503333412
 20
170.2076455069146
 30
0.0
 10
399.4911674751882
 20
169.8008197057371
 30
0.0
 10
399.6571721072863
 20
169.5249618783192
 30
0.0
 10
399.9954582606184
 20
168.9648910803278
 30
0.0
 10
400.1677416087934
 20
168.6806759863166
 30
0.0
 10
400.5179815692698
 20
168.1046117709456
 30
0.0
 10
400.6959393956131
 20
167.812761233573
 30
0.0
 10
401.0570473393352
 20
167.222000336646
 30
0.0
 10
401.2401982904668
 20
166.9230890019722
 30
0.0
 10
401.6113042434791
 20
166.3186687570802
 30
0.0
 10
401.7992598336584
 20
166.0131591576376
 30
0.0
 10
402.0845589788284
 20
165.5502276135307
 30
0.0
 10
402.2280507550122
 20
165.3175941216176
 30
0.0
 10
402.3727674450244
 20
165.083254247756
 30
0.0
 10
402.4695135603828
 20
164.9266530161706
 30
0.0
 10
402.5180310920665
 20
164.848148409392
 30
0.0
 10
402.6534593366017
 20
164.6290968067808
 30
0.0
 10
402.7405517251027
 20
164.4883188994255
 30
0.0
 10
402.8278750968348
 20
164.3472537740157
 30
0.0
  0
ENDSEC
  0
SECTION
  2
OBJECTS
  0
DICTIONARY
  5
C
330
0
100
AcDbDictionary
281
     1
  3
ACAD_DETAILVIEWSTYLE
350
1F0
  3
ACAD_GROUP
350
D
  3
ACAD_LAYOUT
350
1A
  3
ACAD_MATERIAL
350
43
  3
ACAD_MLEADERSTYLE
350
6B
  3
ACAD_MLINESTYLE
350
17
  3
ACAD_PLOTSETTINGS
350
19
  3
ACAD_PLOTSTYLENAME
350
E
  3
ACAD_SCALELIST
350
47
  3
ACAD_SECTIONVIEWSTYLE
350
1F1
  3
ACAD_TABLESTYLE
350
69
  3
ACAD_VISUALSTYLE
350
2A
  3
ACDB_RECOMPOSE_DATA
350
1ED
  3
AcDbVariableDictionary
350
1AD
  0
DICTIONARY
  5
1AB
330
8
100
AcDbDictionary
280
     1
281
     1
  3
ACAD_XREC_ROUNDTRIP
360
1AC
  0
DICTIONARY
  5
1F0
102
{ACAD_REACTORS
330
C
102
}
330
C
100
AcDbDictionary
281
     1
  0
DICTIONARY
  5
D
102
{ACAD_REACTORS
330
C
102
}
330
C
100
AcDbDictionary
281
     1
  0
DICTIONARY
  5
1A
102
{ACAD_REACTORS
330
C
102
}
330
C
100
AcDbDictionary
281
     1
  3
Layout1
350
1E
  3
Layout2
350
26
  3
Model
350
22
  0
DICTIONARY
  5
43
102
{ACAD_REACTORS
330
C
102
}
330
C
100
AcDbDictionary
281
     1
  3
ByBlock
350
45
  3
ByLayer
350
44
  3
Global
350
46
  0
DICTIONARY
  5
6B
102
{ACAD_REACTORS
330
C
102
}
330
C
100
AcDbDictionary
281
     1
  3
Standard
350
6C
  0
DICTIONARY
  5
17
102
{ACAD_REACTORS
330
C
102
}
330
C
100
AcDbDictionary
281
     1
  3
Standard
350
18
  0
DICTIONARY
  5
19
102
{ACAD_REACTORS
330
C
102
}
330
C
100
AcDbDictionary
281
     1
  0
ACDBDICTIONARYWDFLT
  5
E
102
{ACAD_REACTORS
330
C
102
}
330
C
100
AcDbDictionary
281
     1
  3
Normal
350
F
100
AcDbDictionaryWithDefault
340
F
  0
DICTIONARY
  5
47
102
{ACAD_REACTORS
330
C
102
}
330
C
100
AcDbDictionary
281
     1
  3
A0
350
48
  3
A1
350
49
  3
A2
350
4A
  3
A3
350
4B
  3
A4
350
4C
  3
A5
350
4D
  3
A6
350
4E
  3
A7
350
4F
  3
A8
350
50
  3
A9
350
51
  3
B0
350
52
  3
B1
350
53
  3
B2
350
54
  3
B3
350
55
  3
B4
350
56
  3
B5
350
57
  3
B6
350
58
  3
B7
350
59
  3
B8
350
5A
  3
B9
350
5B
  3
C0
350
5C
  3
C1
350
5D
  3
C2
350
5E
  3
C3
350
5F
  3
C4
350
60
  3
C5
350
61
  3
C6
350
62
  3
C7
350
63
  3
C8
350
64
  3
C9
350
65
  3
D0
350
66
  3
D1
350
67
  3
D2
350
68
  0
DICTIONARY
  5
1F1
102
{ACAD_REACTORS
330
C
102
}
330
C
100
AcDbDictionary
281
     1
  0
DICTIONARY
  5
69
102
{ACAD_REACTORS
330
C
102
}
330
C
100
AcDbDictionary
281
     1
  3
Standard
350
6A
  0
DICTIONARY
  5
2A
102
{ACAD_REACTORS
330
C
102
}
330
C
100
AcDbDictionary
281
     1
  3
2dWireframe
350
2F
  3
Basic
350
32
  3
Brighten
350
36
  3
ColorChange
350
3A
  3
Conceptual
350
34
  3
Dim
350
35
  3
EdgeColorOff
350
3D
  3
Facepattern
350
39
  3
Flat
350
2B
  3
FlatWithEdges
350
2C
  3
Gouraud
350
2D
  3
GouraudWithEdges
350
2E
  3
Hidden
350
31
  3
JitterOff
350
3B
  3
Linepattern
350
38
  3
OverhangOff
350
3C
  3
Realistic
350
33
  3
Shaded
350
42
  3
Shaded with edges
350
41
  3
Shades of Gray
350
3E
  3
Sketchy
350
3F
  3
Thicken
350
37
  3
Wireframe
350
30
  3
X-Ray
350
40
  0
XRECORD
  5
1ED
102
{ACAD_REACTORS
330
C
102
}
330
C
100
AcDbXrecord
280
     1
 90
        1
330
6A
  0
DICTIONARY
  5
1AD
102
{ACAD_REACTORS
330
C
102
}
330
C
100
AcDbDictionary
281
     1
  3
CANNOSCALE
350
1AE
  3
CMLEADERSTYLE
350
1EF
  3
CTABLESTYLE
350
1EE
  3
MSLTSCALE
350
1AF
  3
XCLIPFRAME
350
1B0
  0
XRECORD
  5
1AC
102
{ACAD_REACTORS
330
1AB
102
}
330
1AB
100
AcDbXrecord
280
     1
102
VTR_0.000_0.000_1.000_1.000_VISUALSTYLE
340
2F
102
VTR_0.000_0.000_1.000_1.000_GRIDDISPLAY
 70
     3
102
VTR_0.000_0.000_1.000_1.000_GRIDMAJOR
 70
     5
102
VTR_0.000_0.000_1.000_1.000_DEFAULTLIGHTING
280
     1
102
VTR_0.000_0.000_1.000_1.000_DEFAULTLIGHTINGTYPE
 70
     1
102
VTR_0.000_0.000_1.000_1.000_BRIGHTNESS
141
0.0
102
VTR_0.000_0.000_1.000_1.000_CONTRAST
142
0.0
102
VTR_0.000_0.000_0.500_1.000_VISUALSTYLE
340
2F
102
VTR_0.000_0.000_0.500_1.000_GRIDDISPLAY
 70
     3
102
VTR_0.000_0.000_0.500_1.000_GRIDMAJOR
 70
     5
102
VTR_0.000_0.000_0.500_1.000_DEFAULTLIGHTING
280
     1
102
VTR_0.000_0.000_0.500_1.000_DEFAULTLIGHTINGTYPE
 70
     1
102
VTR_0.000_0.000_0.500_1.000_BRIGHTNESS
141
0.0
102
VTR_0.000_0.000_0.500_1.000_CONTRAST
142
0.0
102
VTR_0.500_0.000_1.000_1.000_VISUALSTYLE
340
2F
102
VTR_0.500_0.000_1.000_1.000_GRIDDISPLAY
 70
     3
102
VTR_0.500_0.000_1.000_1.000_GRIDMAJOR
 70
     5
102
VTR_0.500_0.000_1.000_1.000_DEFAULTLIGHTING
280
     1
102
VTR_0.500_0.000_1.000_1.000_DEFAULTLIGHTINGTYPE
 70
     1
102
VTR_0.500_0.000_1.000_1.000_BRIGHTNESS
141
0.0
102
VTR_0.500_0.000_1.000_1.000_CONTRAST
142
0.0
102
VTR_0.000_0.500_1.000_1.000_VISUALSTYLE
340
2F
102
VTR_0.000_0.500_1.000_1.000_GRIDDISPLAY
 70
     3
102
VTR_0.000_0.500_1.000_1.000_GRIDMAJOR
 70
     5
102
VTR_0.000_0.500_1.000_1.000_DEFAULTLIGHTING
280
     1
102
VTR_0.000_0.500_1.000_1.000_DEFAULTLIGHTINGTYPE
 70
     1
102
VTR_0.000_0.500_1.000_1.000_BRIGHTNESS
141
0.0
102
VTR_0.000_0.500_1.000_1.000_CONTRAST
142
0.0
102
VTR_0.000_0.000_1.000_0.500_VISUALSTYLE
340
2F
102
VTR_0.000_0.000_1.000_0.500_GRIDDISPLAY
 70
     3
102
VTR_0.000_0.000_1.000_0.500_GRIDMAJOR
 70
     5
102
VTR_0.000_0.000_1.000_0.500_DEFAULTLIGHTING
280
     1
102
VTR_0.000_0.000_1.000_0.500_DEFAULTLIGHTINGTYPE
 70
     1
102
VTR_0.000_0.000_1.000_0.500_BRIGHTNESS
141
0.0
102
VTR_0.000_0.000_1.000_0.500_CONTRAST
142
0.0
102
VTR_0.000_0.500_0.500_1.000_VISUALSTYLE
340
2F
102
VTR_0.000_0.500_0.500_1.000_GRIDDISPLAY
 70
     3
102
VTR_0.000_0.500_0.500_1.000_GRIDMAJOR
 70
     5
102
VTR_0.000_0.500_0.500_1.000_DEFAULTLIGHTING
280
     1
102
VTR_0.000_0.500_0.500_1.000_DEFAULTLIGHTINGTYPE
 70
     1
102
VTR_0.000_0.500_0.500_1.000_BRIGHTNESS
141
0.0
102
VTR_0.000_0.500_0.500_1.000_CONTRAST
142
0.0
102
VTR_0.000_0.000_0.500_0.500_VISUALSTYLE
340
2F
102
VTR_0.000_0.000_0.500_0.500_GRIDDISPLAY
 70
     3
102
VTR_0.000_0.000_0.500_0.500_GRIDMAJOR
 70
     5
102
VTR_0.000_0.000_0.500_0.500_DEFAULTLIGHTING
280
     1
102
VTR_0.000_0.000_0.500_0.500_DEFAULTLIGHTINGTYPE
 70
     1
102
VTR_0.000_0.000_0.500_0.500_BRIGHTNESS
141
0.0
102
VTR_0.000_0.000_0.500_0.500_CONTRAST
142
0.0
102
VTR_0.500_0.000_1.000_0.500_VISUALSTYLE
340
2F
102
VTR_0.500_0.000_1.000_0.500_GRIDDISPLAY
 70
     3
102
VTR_0.500_0.000_1.000_0.500_GRIDMAJOR
 70
     5
102
VTR_0.500_0.000_1.000_0.500_DEFAULTLIGHTING
280
     1
102
VTR_0.500_0.000_1.000_0.500_DEFAULTLIGHTINGTYPE
 70
     1
102
VTR_0.500_0.000_1.000_0.500_BRIGHTNESS
141
0.0
102
VTR_0.500_0.000_1.000_0.500_CONTRAST
142
0.0
102
VTR_0.500_0.500_1.000_1.000_VISUALSTYLE
340
2F
102
VTR_0.500_0.500_1.000_1.000_GRIDDISPLAY
 70
     3
102
VTR_0.500_0.500_1.000_1.000_GRIDMAJOR
 70
     5
102
VTR_0.500_0.500_1.000_1.000_DEFAULTLIGHTING
280
     1
102
VTR_0.500_0.500_1.000_1.000_DEFAULTLIGHTINGTYPE
 70
     1
102
VTR_0.500_0.500_1.000_1.000_BRIGHTNESS
141
0.0
102
VTR_0.500_0.500_1.000_1.000_CONTRAST
142
0.0
102
VTR_0.000_0.500_0.333_1.000_VISUALSTYLE
340
2F
102
VTR_0.000_0.500_0.333_1.000_GRIDDISPLAY
 70
     3
102
VTR_0.000_0.500_0.333_1.000_GRIDMAJOR
 70
     5
102
VTR_0.000_0.500_0.333_1.000_DEFAULTLIGHTING
280
     1
102
VTR_0.000_0.500_0.333_1.000_DEFAULTLIGHTINGTYPE
 70
     1
102
VTR_0.000_0.500_0.333_1.000_BRIGHTNESS
141
0.0
102
VTR_0.000_0.500_0.333_1.000_CONTRAST
142
0.0
102
VTR_0.000_0.000_0.333_0.500_VISUALSTYLE
340
2F
102
VTR_0.000_0.000_0.333_0.500_GRIDDISPLAY
 70
     3
102
VTR_0.000_0.000_0.333_0.500_GRIDMAJOR
 70
     5
102
VTR_0.000_0.000_0.333_0.500_DEFAULTLIGHTING
280
     1
102
VTR_0.000_0.000_0.333_0.500_DEFAULTLIGHTINGTYPE
 70
     1
102
VTR_0.000_0.000_0.333_0.500_BRIGHTNESS
141
0.0
102
VTR_0.000_0.000_0.333_0.500_CONTRAST
142
0.0
102
VTR_0.333_0.500_0.667_1.000_VISUALSTYLE
340
2F
102
VTR_0.333_0.500_0.667_1.000_GRIDDISPLAY
 70
     3
102
VTR_0.333_0.500_0.667_1.000_GRIDMAJOR
 70
     5
102
VTR_0.333_0.500_0.667_1.000_DEFAULTLIGHTING
280
     1
102
VTR_0.333_0.500_0.667_1.000_DEFAULTLIGHTINGTYPE
 70
     1
102
VTR_0.333_0.500_0.667_1.000_BRIGHTNESS
141
0.0
102
VTR_0.333_0.500_0.667_1.000_CONTRAST
142
0.0
102
VTR_0.333_0.000_0.667_0.500_VISUALSTYLE
340
2F
102
VTR_0.333_0.000_0.667_0.500_GRIDDISPLAY
 70
     3
102
VTR_0.333_0.000_0.667_0.500_GRIDMAJOR
 70
     5
102
VTR_0.333_0.000_0.667_0.500_DEFAULTLIGHTING
280
     1
102
VTR_0.333_0.000_0.667_0.500_DEFAULTLIGHTINGTYPE
 70
     1
102
VTR_0.333_0.000_0.667_0.500_BRIGHTNESS
141
0.0
102
VTR_0.333_0.000_0.667_0.500_CONTRAST
142
0.0
102
VTR_0.667_0.500_1.000_1.000_VISUALSTYLE
340
2F
102
VTR_0.667_0.500_1.000_1.000_GRIDDISPLAY
 70
     3
102
VTR_0.667_0.500_1.000_1.000_GRIDMAJOR
 70
     5
102
VTR_0.667_0.500_1.000_1.000_DEFAULTLIGHTING
280
     1
102
VTR_0.667_0.500_1.000_1.000_DEFAULTLIGHTINGTYPE
 70
     1
102
VTR_0.667_0.500_1.000_1.000_BRIGHTNESS
141
0.0
102
VTR_0.667_0.500_1.000_1.000_CONTRAST
142
0.0
102
VTR_0.667_0.000_1.000_0.500_VISUALSTYLE
340
2F
102
VTR_0.667_0.000_1.000_0.500_GRIDDISPLAY
 70
     3
102
VTR_0.667_0.000_1.000_0.500_GRIDMAJOR
 70
     5
102
VTR_0.667_0.000_1.000_0.500_DEFAULTLIGHTING
280
     1
102
VTR_0.667_0.000_1.000_0.500_DEFAULTLIGHTINGTYPE
 70
     1
102
VTR_0.667_0.000_1.000_0.500_BRIGHTNESS
141
0.0
102
VTR_0.667_0.000_1.000_0.500_CONTRAST
142
0.0
  0
LAYOUT
  5
1E
102
{ACAD_REACTORS
330
1A
102
}
330
1A
100
AcDbPlotSettings
  1

  2
none_device
  4

  6

 40
0.0
 41
0.0
 42
0.0
 43
0.0
 44
0.0
 45
0.0
 46
0.0
 47
0.0
 48
0.0
 49
0.0
140
0.0
141
0.0
142
1.0
143
1.0
 70
   688
 72
     0
 73
     0
 74
     5
  7

 75
    16
 76
     0
 77
     2
 78
   300
147
1.0
148
0.0
149
0.0
100
AcDbLayout
  1
Layout1
 70
     1
 71
     1
 10
-0.5
 20
-0.5
 11
5.0
 21
5.0
 12
0.0
 22
0.0
 32
0.0
 14
-0.5
 24
-0.5
 34
-0.5
 15
5.0
 25
5.0
 35
5.0
146
0.0
 13
0.0
 23
0.0
 33
0.0
 16
1.0
 26
0.0
 36
0.0
 17
0.0
 27
1.0
 37
0.0
 76
     0
330
1B
  0
LAYOUT
  5
26
102
{ACAD_REACTORS
330
1A
102
}
330
1A
100
AcDbPlotSettings
  1

  2
none_device
  4

  6

 40
0.0
 41
0.0
 42
0.0
 43
0.0
 44
0.0
 45
0.0
 46
0.0
 47
0.0
 48
0.0
 49
0.0
140
0.0
141
0.0
142
1.0
143
1.0
 70
   688
 72
     0
 73
     0
 74
     5
  7

 75
    16
 76
     0
 77
     2
 78
   300
147
1.0
148
0.0
149
0.0
100
AcDbLayout
  1
Layout2
 70
     1
 71
     2
 10
0.0
 20
0.0
 11
0.0
 21
0.0
 12
0.0
 22
0.0
 32
0.0
 14
0.0
 24
0.0
 34
0.0
 15
0.0
 25
0.0
 35
0.0
146
0.0
 13
0.0
 23
0.0
 33
0.0
 16
1.0
 26
0.0
 36
0.0
 17
0.0
 27
1.0
 37
0.0
 76
     0
330
23
  0
LAYOUT
  5
22
102
{ACAD_REACTORS
330
1A
102
}
330
1A
100
AcDbPlotSettings
  1

  2
none_device
  4
Letter_(8.50_x_11.00_Inches)
  6

 40
6.35
 41
6.35
 42
6.350005
 43
6.350005
 44
215.9
 45
279.4
 46
0.0
 47
0.0
 48
0.0
 49
0.0
140
0.0
141
0.0
142
1.0
143
1.0
 70
  1712
 72
     0
 73
     0
 74
     0
  7

 75
     0
 76
     0
 77
     2
 78
   300
147
1.0
148
0.0
149
0.0
100
AcDbLayout
  1
Model
 70
     1
 71
     0
 10
-0.5
 20
-0.5
 11
5.0
 21
5.0
 12
0.0
 22
0.0
 32
0.0
 14
-0.5
 24
-0.5
 34
-0.5
 15
5.0
 25
5.0
 35
5.0
146
0.0
 13
0.0
 23
0.0
 33
0.0
 16
1.0
 26
0.0
 36
0.0
 17
0.0
 27
1.0
 37
0.0
 76
     0
330
1F
331
29
  0
MATERIAL
  5
45
102
{ACAD_REACTORS
330
43
102
}
102
{ACAD_XDICTIONARY
360
1E3
102
}
330
43
100
AcDbMaterial
  1
ByBlock
  0
MATERIAL
  5
44
102
{ACAD_REACTORS
330
43
102
}
102
{ACAD_XDICTIONARY
360
1E1
102
}
330
43
100
AcDbMaterial
  1
ByLayer
  0
MATERIAL
  5
46
102
{ACAD_REACTORS
330
43
102
}
102
{ACAD_XDICTIONARY
360
1E5
102
}
330
43
100
AcDbMaterial
  1
Global
  0
MLEADERSTYLE
  5
6C
102
{ACAD_REACTORS
330
6B
102
}
102
{ACAD_XDICTIONARY
360
1EB
102
}
330
6B
100
AcDbMLeaderStyle
170
     2
171
     1
172
     0
 90
        2
 40
0.0
 41
0.0
173
     1
 91
-1056964608
340
14
 92
       -2
290
     1
 42
0.09
291
     1
 43
0.36
  3
Standard
341
0
 44
0.18
300

342
11
174
     1
178
     6
175
     1
176
     0
 93
-1056964608
 45
0.18
292
     0
297
     0
 46
0.18
343
0
 94
-1056964608
 47
1.0
 49
1.0
140
1.0
293
     1
141
0.0
294
     1
177
     0
142
1.0
295
     0
296
     0
143
0.125
1001
ACAD_MLEADERVER
1070
     2
  0
MLINESTYLE
  5
18
102
{ACAD_REACTORS
330
17
102
}
330
17
100
AcDbMlineStyle
  2
Standard
 70
     0
  3

 62
   256
 51
90.0
 52
90.0
 71
     2
 49
0.5
 62
   256
  6
BYLAYER
 49
-0.5
 62
   256
  6
BYLAYER
  0
ACDBPLACEHOLDER
  5
F
102
{ACAD_REACTORS
330
E
102
}
330
E
  0
SCALE
  5
48
102
{ACAD_REACTORS
330
47
102
}
330
47
100
AcDbScale
 70
     0
300
1:1
140
1.0
141
1.0
290
     1
  0
SCALE
  5
49
102
{ACAD_REACTORS
330
47
102
}
330
47
100
AcDbScale
 70
     0
300
1:2
140
1.0
141
2.0
290
     0
  0
SCALE
  5
4A
102
{ACAD_REACTORS
330
47
102
}
330
47
100
AcDbScale
 70
     0
300
1:4
140
1.0
141
4.0
290
     0
  0
SCALE
  5
4B
102
{ACAD_REACTORS
330
47
102
}
330
47
100
AcDbScale
 70
     0
300
1:5
140
1.0
141
5.0
290
     0
  0
SCALE
  5
4C
102
{ACAD_REACTORS
330
47
102
}
330
47
100
AcDbScale
 70
     0
300
1:8
140
1.0
141
8.0
290
     0
  0
SCALE
  5
4D
102
{ACAD_REACTORS
330
47
102
}
330
47
100
AcDbScale
 70
     0
300
1:10
140
1.0
141
10.0
290
     0
  0
SCALE
  5
4E
102
{ACAD_REACTORS
330
47
102
}
330
47
100
AcDbScale
 70
     0
300
1:16
140
1.0
141
16.0
290
     0
  0
SCALE
  5
4F
102
{ACAD_REACTORS
330
47
102
}
330
47
100
AcDbScale
 70
     0
300
1:20
140
1.0
141
20.0
290
     0
  0
SCALE
  5
50
102
{ACAD_REACTORS
330
47
102
}
330
47
100
AcDbScale
 70
     0
300
1:30
140
1.0
141
30.0
290
     0
  0
SCALE
  5
51
102
{ACAD_REACTORS
330
47
102
}
330
47
100
AcDbScale
 70
     0
300
1:40
140
1.0
141
40.0
290
     0
  0
SCALE
  5
52
102
{ACAD_REACTORS
330
47
102
}
330
47
100
AcDbScale
 70
     0
300
1:50
140
1.0
141
50.0
290
     0
  0
SCALE
  5
53
102
{ACAD_REACTORS
330
47
102
}
330
47
100
AcDbScale
 70
     0
300
1:100
140
1.0
141
100.0
290
     0
  0
SCALE
  5
54
102
{ACAD_REACTORS
330
47
102
}
330
47
100
AcDbScale
 70
     0
300
2:1
140
2.0
141
1.0
290
     0
  0
SCALE
  5
55
102
{ACAD_REACTORS
330
47
102
}
330
47
100
AcDbScale
 70
     0
300
4:1
140
4.0
141
1.0
290
     0
  0
SCALE
  5
56
102
{ACAD_REACTORS
330
47
102
}
330
47
100
AcDbScale
 70
     0
300
8:1
140
8.0
141
1.0
290
     0
  0
SCALE
  5
57
102
{ACAD_REACTORS
330
47
102
}
330
47
100
AcDbScale
 70
     0
300
10:1
140
10.0
141
1.0
290
     0
  0
SCALE
  5
58
102
{ACAD_REACTORS
330
47
102
}
330
47
100
AcDbScale
 70
     0
300
100:1
140
100.0
141
1.0
290
     0
  0
SCALE
  5
59
102
{ACAD_REACTORS
330
47
102
}
330
47
100
AcDbScale
 70
     0
300
1/128" = 1'-0"
140
0.007812
141
12.0
290
     0
  0
SCALE
  5
5A
102
{ACAD_REACTORS
330
47
102
}
330
47
100
AcDbScale
 70
     0
300
1/64" = 1'-0"
140
0.015625
141
12.0
290
     0
  0
SCALE
  5
5B
102
{ACAD_REACTORS
330
47
102
}
330
47
100
AcDbScale
 70
     0
300
1/32" = 1'-0"
140
0.03125
141
12.0
290
     0
  0
SCALE
  5
5C
102
{ACAD_REACTORS
330
47
102
}
330
47
100
AcDbScale
 70
     0
300
1/16" = 1'-0"
140
0.0625
141
12.0
290
     0
  0
SCALE
  5
5D
102
{ACAD_REACTORS
330
47
102
}
330
47
100
AcDbScale
 70
     0
300
3/32" = 1'-0"
140
0.09375
141
12.0
290
     0
  0
SCALE
  5
5E
102
{ACAD_REACTORS
330
47
102
}
330
47
100
AcDbScale
 70
     0
300
1/8" = 1'-0"
140
0.125
141
12.0
290
     0
  0
SCALE
  5
5F
102
{ACAD_REACTORS
330
47
102
}
330
47
100
AcDbScale
 70
     0
300
3/16" = 1'-0"
140
0.1875
141
12.0
290
     0
  0
SCALE
  5
60
102
{ACAD_REACTORS
330
47
102
}
330
47
100
AcDbScale
 70
     0
300
1/4" = 1'-0"
140
0.25
141
12.0
290
     0
  0
SCALE
  5
61
102
{ACAD_REACTORS
330
47
102
}
330
47
100
AcDbScale
 70
     0
300
3/8" = 1'-0"
140
0.375
141
12.0
290
     0
  0
SCALE
  5
62
102
{ACAD_REACTORS
330
47
102
}
330
47
100
AcDbScale
 70
     0
300
1/2" = 1'-0"
140
0.5
141
12.0
290
     0
  0
SCALE
  5
63
102
{ACAD_REACTORS
330
47
102
}
330
47
100
AcDbScale
 70
     0
300
3/4" = 1'-0"
140
0.75
141
12.0
290
     0
  0
SCALE
  5
64
102
{ACAD_REACTORS
330
47
102
}
330
47
100
AcDbScale
 70
     0
300
1" = 1'-0"
140
1.0
141
12.0
290
     0
  0
SCALE
  5
65
102
{ACAD_REACTORS
330
47
102
}
330
47
100
AcDbScale
 70
     0
300
1-1/2" = 1'-0"
140
1.5
141
12.0
290
     0
  0
SCALE
  5
66
102
{ACAD_REACTORS
330
47
102
}
330
47
100
AcDbScale
 70
     0
300
3" = 1'-0"
140
3.0
141
12.0
290
     0
  0
SCALE
  5
67
102
{ACAD_REACTORS
330
47
102
}
330
47
100
AcDbScale
 70
     0
300
6" = 1'-0"
140
6.0
141
12.0
290
     0
  0
SCALE
  5
68
102
{ACAD_REACTORS
330
47
102
}
330
47
100
AcDbScale
 70
     0
300
1'-0" = 1'-0"
140
12.0
141
12.0
290
     0
  0
TABLESTYLE
  5
6A
102
{ACAD_REACTORS
330
69
102
}
102
{ACAD_XDICTIONARY
360
1E7
102
}
330
69
100
AcDbTableStyle
  3
Standard
 70
     0
 71
     0
 40
0.06
 41
0.06
280
     0
281
     0
  7
Standard
140
0.18
170
     2
 62
     0
 63
   257
283
     0
274
    -2
284
     1
 64
     0
275
    -2
285
     1
 65
     0
276
    -2
286
     1
 66
     0
277
    -2
287
     1
 67
     0
278
    -2
288
     1
 68
     0
279
    -2
289
     1
 69
     0
  7
Standard
140
0.25
170
     5
 62
     0
 63
   257
283
     0
274
    -2
284
     1
 64
     0
275
    -2
285
     1
 65
     0
276
    -2
286
     1
 66
     0
277
    -2
287
     1
 67
     0
278
    -2
288
     1
 68
     0
279
    -2
289
     1
 69
     0
  7
Standard
140
0.18
170
     5
 62
     0
 63
   257
283
     0
274
    -2
284
     1
 64
     0
275
    -2
285
     1
 65
     0
276
    -2
286
     1
 66
     0
277
    -2
287
     1
 67
     0
278
    -2
288
     1
 68
     0
279
    -2
289
     1
 69
     0
  0
VISUALSTYLE
  5
2F
102
{ACAD_REACTORS
330
2A
102
}
102
{ACAD_XDICTIONARY
360
1B9
102
}
330
2A
100
AcDbVisualStyle
  2
2dWireframe
 70
     4
 71
     0
 72
     2
 73
     0
 90
        0
 40
0.6
 41
30.0
 62
     5
 63
     7
421
 16777215
 74
     1
 91
        4
 64
     7
 65
   257
 75
     1
175
     1
 42
1.0
 92
        0
 66
   257
 43
1.0
 76
     1
 77
     6
 78
     2
 67
     7
 79
     5
170
     0
171
     0
290
     0
174
     0
 93
        1
 44
0.0
173
     0
291
     0
 45
0.0
1001
ACAD
1000
AcDbSavedByObjectVersion
1070
     0
  0
VISUALSTYLE
  5
32
102
{ACAD_REACTORS
330
2A
102
}
102
{ACAD_XDICTIONARY
360
1BF
102
}
330
2A
100
AcDbVisualStyle
  2
Basic
 70
     7
 71
     1
 72
     0
 73
     1
 90
        0
 40
0.6
 41
30.0
 62
     5
 63
     7
421
 16777215
 74
     0
 91
        4
 64
     7
 65
   257
 75
     1
175
     1
 42
1.0
 92
        8
 66
     7
 43
1.0
 76
     1
 77
     6
 78
     2
 67
     7
 79
     5
170
     0
171
     0
290
     0
174
     0
 93
        1
 44
0.0
173
     0
291
     1
 45
0.0
1001
ACAD
1000
AcDbSavedByObjectVersion
1070
     0
  0
VISUALSTYLE
  5
36
102
{ACAD_REACTORS
330
2A
102
}
102
{ACAD_XDICTIONARY
360
1C7
102
}
330
2A
100
AcDbVisualStyle
  2
Brighten
 70
    12
 71
     2
 72
     2
 73
     0
 90
        0
 40
0.6
 41
30.0
 62
     5
 63
     7
421
 16777215
 74
     1
 91
        4
 64
     7
 65
   257
 75
     1
175
     1
 42
1.0
 92
        8
 66
     7
 43
1.0
 76
     1
 77
     6
 78
     2
 67
     7
 79
     5
170
     0
171
     0
290
     0
174
     0
 93
        1
 44
50.0
173
     0
291
     1
 45
0.0
1001
ACAD
1000
AcDbSavedByObjectVersion
1070
     0
  0
VISUALSTYLE
  5
3A
102
{ACAD_REACTORS
330
2A
102
}
102
{ACAD_XDICTIONARY
360
1CF
102
}
330
2A
100
AcDbVisualStyle
  2
ColorChange
 70
    16
 71
     2
 72
     2
 73
     3
 90
        0
 40
0.6
 41
30.0
 62
     5
 63
     8
421
  8421504
 74
     1
 91
        4
 64
     7
 65
   257
 75
     1
175
     1
 42
1.0
 92
        8
 66
     8
424
  8421504
 43
1.0
 76
     1
 77
     6
 78
     2
 67
     7
 79
     5
170
     0
171
     0
290
     0
174
     0
 93
        1
 44
0.0
173
     0
291
     1
 45
0.0
1001
ACAD
1000
AcDbSavedByObjectVersion
1070
     0
  0
VISUALSTYLE
  5
34
102
{ACAD_REACTORS
330
2A
102
}
102
{ACAD_XDICTIONARY
360
1C3
102
}
330
2A
100
AcDbVisualStyle
  2
Conceptual
 70
     9
 71
     3
 72
     2
 73
     0
 90
        0
 40
0.6
 41
30.0
 62
     5
 63
     7
421
 16777215
 74
     2
 91
        2
 64
     7
 65
   257
 75
     1
175
     1
 42
179.0
 92
        8
 66
     7
 43
1.0
 76
     1
 77
     6
 78
     2
 67
     7
 79
     3
170
     0
171
     0
290
     0
174
     0
 93
        1
 44
0.0
173
     0
291
     0
 45
0.0
1001
ACAD
1000
AcDbSavedByObjectVersion
1070
     0
  0
VISUALSTYLE
  5
35
102
{ACAD_REACTORS
330
2A
102
}
102
{ACAD_XDICTIONARY
360
1C5
102
}
330
2A
100
AcDbVisualStyle
  2
Dim
 70
    11
 71
     2
 72
     2
 73
     0
 90
        0
 40
0.6
 41
30.0
 62
     5
 63
     7
421
 16777215
 74
     1
 91
        4
 64
     7
 65
   257
 75
     1
175
     1
 42
1.0
 92
        8
 66
     7
 43
1.0
 76
     1
 77
     6
 78
     2
 67
     7
 79
     5
170
     0
171
     0
290
     0
174
     0
 93
        1
 44
-50.0
173
     0
291
     1
 45
0.0
1001
ACAD
1000
AcDbSavedByObjectVersion
1070
     0
  0
VISUALSTYLE
  5
3D
102
{ACAD_REACTORS
330
2A
102
}
102
{ACAD_XDICTIONARY
360
1D5
102
}
330
2A
100
AcDbVisualStyle
  2
EdgeColorOff
 70
    22
 71
     2
 72
     2
 73
     0
 90
        0
 40
0.6
 41
30.0
 62
     5
 63
     7
421
 16777215
 74
     1
 91
        4
 64
     7
 65
   257
 75
     1
175
     1
 42
1.0
 92
        8
 66
     7
 43
1.0
 76
     1
 77
     6
 78
     2
 67
     7
 79
     5
170
     0
171
     0
290
     0
174
     0
 93
        1
 44
0.0
173
     0
291
     1
 45
0.0
1001
ACAD
1000
AcDbSavedByObjectVersion
1070
     0
  0
VISUALSTYLE
  5
39
102
{ACAD_REACTORS
330
2A
102
}
102
{ACAD_XDICTIONARY
360
1CD
102
}
330
2A
100
AcDbVisualStyle
  2
Facepattern
 70
    15
 71
     2
 72
     2
 73
     0
 90
        0
 40
0.6
 41
30.0
 62
     5
 63
     7
421
 16777215
 74
     1
 91
        4
 64
     7
 65
   257
 75
     1
175
     1
 42
1.0
 92
        8
 66
     7
 43
1.0
 76
     1
 77
     6
 78
     2
 67
     7
 79
     5
170
     0
171
     0
290
     0
174
     0
 93
        1
 44
0.0
173
     0
291
     1
 45
0.0
1001
ACAD
1000
AcDbSavedByObjectVersion
1070
     0
  0
VISUALSTYLE
  5
2B
102
{ACAD_REACTORS
330
2A
102
}
102
{ACAD_XDICTIONARY
360
1B1
102
}
330
2A
100
AcDbVisualStyle
  2
Flat
 70
     0
 71
     2
 72
     1
 73
     1
 90
        2
 40
0.6
 41
30.0
 62
     5
 63
     7
421
 16777215
 74
     0
 91
        0
 64
     7
 65
   257
 75
     1
175
     1
 42
1.0
 92
        8
 66
     7
 43
1.0
 76
     1
 77
     6
 78
     2
 67
     7
 79
     5
170
     0
171
     0
290
     0
174
     0
 93
       13
 44
0.0
173
     0
291
     1
 45
0.0
1001
ACAD
1000
AcDbSavedByObjectVersion
1070
     0
  0
VISUALSTYLE
  5
2C
102
{ACAD_REACTORS
330
2A
102
}
102
{ACAD_XDICTIONARY
360
1B3
102
}
330
2A
100
AcDbVisualStyle
  2
FlatWithEdges
 70
     1
 71
     2
 72
     1
 73
     1
 90
        2
 40
0.6
 41
30.0
 62
     5
 63
     7
421
 16777215
 74
     1
 91
        0
 64
     7
 65
   257
 75
     1
175
     1
 42
1.0
 92
        0
 66
   257
 43
1.0
 76
     1
 77
     6
 78
     2
 67
     7
 79
     5
170
     0
171
     0
290
     0
174
     0
 93
       13
 44
0.0
173
     0
291
     1
 45
0.0
1001
ACAD
1000
AcDbSavedByObjectVersion
1070
     0
  0
VISUALSTYLE
  5
2D
102
{ACAD_REACTORS
330
2A
102
}
102
{ACAD_XDICTIONARY
360
1B5
102
}
330
2A
100
AcDbVisualStyle
  2
Gouraud
 70
     2
 71
     2
 72
     2
 73
     1
 90
        2
 40
0.6
 41
30.0
 62
     5
 63
     7
421
 16777215
 74
     0
 91
        0
 64
     7
 65
   257
 75
     1
175
     1
 42
1.0
 92
        0
 66
     7
 43
1.0
 76
     1
 77
     6
 78
     2
 67
     7
 79
     5
170
     0
171
     0
290
     0
174
     0
 93
       13
 44
0.0
173
     0
291
     1
 45
0.0
1001
ACAD
1000
AcDbSavedByObjectVersion
1070
     0
  0
VISUALSTYLE
  5
2E
102
{ACAD_REACTORS
330
2A
102
}
102
{ACAD_XDICTIONARY
360
1B7
102
}
330
2A
100
AcDbVisualStyle
  2
GouraudWithEdges
 70
     3
 71
     2
 72
     2
 73
     1
 90
        2
 40
0.6
 41
30.0
 62
     5
 63
     7
421
 16777215
 74
     1
 91
        0
 64
     7
 65
   257
 75
     1
175
     1
 42
1.0
 92
        0
 66
   257
 43
1.0
 76
     1
 77
     6
 78
     2
 67
     7
 79
     5
170
     0
171
     0
290
     0
174
     0
 93
       13
 44
0.0
173
     0
291
     1
 45
0.0
1001
ACAD
1000
AcDbSavedByObjectVersion
1070
     0
  0
VISUALSTYLE
  5
31
102
{ACAD_REACTORS
330
2A
102
}
102
{ACAD_XDICTIONARY
360
1BD
102
}
330
2A
100
AcDbVisualStyle
  2
Hidden
 70
     6
 71
     1
 72
     2
 73
     2
 90
        0
 40
0.6
 41
30.0
 62
     5
 63
     7
421
 16777215
 74
     2
 91
        2
 64
     7
 65
   257
 75
     2
175
     1
 42
40.0
 92
        0
 66
   257
 43
1.0
 76
     1
 77
     6
 78
     2
 67
     7
 79
     3
170
     0
171
     0
290
     0
174
     0
 93
        1
 44
0.0
173
     0
291
     0
 45
0.0
1001
ACAD
1000
AcDbSavedByObjectVersion
1070
     0
  0
VISUALSTYLE
  5
3B
102
{ACAD_REACTORS
330
2A
102
}
102
{ACAD_XDICTIONARY
360
1D1
102
}
330
2A
100
AcDbVisualStyle
  2
JitterOff
 70
    20
 71
     2
 72
     2
 73
     0
 90
        0
 40
0.6
 41
30.0
 62
     5
 63
     7
421
 16777215
 74
     1
 91
        4
 64
     7
 65
   257
 75
     1
175
     1
 42
1.0
 92
       10
 66
     7
 43
1.0
 76
     1
 77
     6
 78
     2
 67
     7
 79
     5
170
     0
171
     0
290
     0
174
     0
 93
        1
 44
0.0
173
     0
291
     1
 45
0.0
1001
ACAD
1000
AcDbSavedByObjectVersion
1070
     0
  0
VISUALSTYLE
  5
38
102
{ACAD_REACTORS
330
2A
102
}
102
{ACAD_XDICTIONARY
360
1CB
102
}
330
2A
100
AcDbVisualStyle
  2
Linepattern
 70
    14
 71
     2
 72
     2
 73
     0
 90
        0
 40
0.6
 41
30.0
 62
     5
 63
     7
421
 16777215
 74
     1
 91
        4
 64
     7
 65
   257
 75
     7
175
     7
 42
1.0
 92
        8
 66
     7
 43
1.0
 76
     1
 77
     6
 78
     2
 67
     7
 79
     5
170
     0
171
     0
290
     0
174
     0
 93
        1
 44
0.0
173
     0
291
     1
 45
0.0
1001
ACAD
1000
AcDbSavedByObjectVersion
1070
     0
  0
VISUALSTYLE
  5
3C
102
{ACAD_REACTORS
330
2A
102
}
102
{ACAD_XDICTIONARY
360
1D3
102
}
330
2A
100
AcDbVisualStyle
  2
OverhangOff
 70
    21
 71
     2
 72
     2
 73
     0
 90
        0
 40
0.6
 41
30.0
 62
     5
 63
     7
421
 16777215
 74
     1
 91
        4
 64
     7
 65
   257
 75
     1
175
     1
 42
1.0
 92
        9
 66
     7
 43
1.0
 76
     1
 77
     6
 78
     2
 67
     7
 79
     5
170
     0
171
     0
290
     0
174
     0
 93
        1
 44
0.0
173
     0
291
     1
 45
0.0
1001
ACAD
1000
AcDbSavedByObjectVersion
1070
     0
  0
VISUALSTYLE
  5
33
102
{ACAD_REACTORS
330
2A
102
}
102
{ACAD_XDICTIONARY
360
1C1
102
}
330
2A
100
AcDbVisualStyle
  2
Realistic
 70
     8
 71
     2
 72
     3
 73
     0
 90
        2
 40
0.6
 41
30.0
 62
     5
 63
     7
421
 16777215
 74
     0
 91
        0
 64
     7
 65
   257
 75
     1
175
     1
 42
1.0
 92
        8
 66
   257
 43
1.0
 76
     1
 77
     6
 78
     2
 67
     7
 79
     3
170
     0
171
     0
290
     0
174
     0
 93
       13
 44
0.0
173
     0
291
     0
 45
0.0
1001
ACAD
1000
AcDbSavedByObjectVersion
1070
     0
  0
VISUALSTYLE
  5
42
102
{ACAD_REACTORS
330
2A
102
}
102
{ACAD_XDICTIONARY
360
1DF
102
}
330
2A
100
AcDbVisualStyle
  2
Shaded
 70
    27
 71
     2
 72
     2
 73
     1
 90
        2
 40
0.6
 41
30.0
 62
     5
 63
     7
421
 16777215
 74
     0
 91
        4
 64
     7
 65
   257
 75
     1
175
     1
 42
1.0
 92
        8
 66
   257
 43
1.0
 76
     1
 77
     6
 78
     2
 67
     8
425
  7895160
 79
     3
170
     0
171
     0
290
     0
174
     0
 93
        5
 44
0.0
173
     0
291
     0
 45
0.0
1001
ACAD
1000
AcDbSavedByObjectVersion
1070
     0
  0
VISUALSTYLE
  5
41
102
{ACAD_REACTORS
330
2A
102
}
102
{ACAD_XDICTIONARY
360
1DD
102
}
330
2A
100
AcDbVisualStyle
  2
Shaded with edges
 70
    26
 71
     2
 72
     2
 73
     1
 90
        2
 40
0.6
 41
30.0
 62
     5
 63
     7
421
 16777215
 74
     1
 91
       10
 64
     7
 65
   257
 75
     2
175
     1
 42
1.0
 92
        8
 66
   257
 43
1.0
 76
     1
 77
     6
 78
     2
 67
     7
 79
     3
170
     0
171
     0
290
     0
174
     0
 93
        5
 44
0.0
173
     0
291
     0
 45
0.0
1001
ACAD
1000
AcDbSavedByObjectVersion
1070
     0
  0
VISUALSTYLE
  5
3E
102
{ACAD_REACTORS
330
2A
102
}
102
{ACAD_XDICTIONARY
360
1D7
102
}
330
2A
100
AcDbVisualStyle
  2
Shades of Gray
 70
    23
 71
     2
 72
     2
 73
     3
 90
        0
 40
0.6
 41
30.0
 62
     5
 63
     7
421
 16777215
 74
     2
 91
        2
 64
     7
 65
     7
 75
     1
175
     1
 42
40.0
 92
        8
 66
     7
 43
1.0
 76
     1
 77
     6
 78
     2
 67
     7
 79
     3
170
     0
171
     0
290
     0
174
     0
 93
        1
 44
0.0
173
     0
291
     0
 45
0.0
1001
ACAD
1000
AcDbSavedByObjectVersion
1070
     0
  0
VISUALSTYLE
  5
3F
102
{ACAD_REACTORS
330
2A
102
}
102
{ACAD_XDICTIONARY
360
1D9
102
}
330
2A
100
AcDbVisualStyle
  2
Sketchy
 70
    24
 71
     1
 72
     2
 73
     2
 90
        0
 40
0.6
 41
30.0
 62
     5
 63
     7
421
 16777215
 74
     2
 91
        2
 64
     7
 65
     7
 75
     1
175
     1
 42
40.0
 92
       11
 66
     7
 43
1.0
 76
     1
 77
     6
 78
     2
 67
     7
 79
     6
170
     0
171
     0
290
     0
174
     0
 93
        1
 44
0.0
173
     0
291
     0
 45
0.0
1001
ACAD
1000
AcDbSavedByObjectVersion
1070
     0
  0
VISUALSTYLE
  5
37
102
{ACAD_REACTORS
330
2A
102
}
102
{ACAD_XDICTIONARY
360
1C9
102
}
330
2A
100
AcDbVisualStyle
  2
Thicken
 70
    13
 71
     2
 72
     2
 73
     0
 90
        0
 40
0.6
 41
30.0
 62
     5
 63
     7
421
 16777215
 74
     1
 91
        4
 64
     7
 65
   257
 75
     1
175
     1
 42
1.0
 92
       12
 66
     7
 43
1.0
 76
     1
 77
     6
 78
     2
 67
     7
 79
     5
170
     0
171
     0
290
     0
174
     0
 93
        1
 44
0.0
173
     0
291
     1
 45
0.0
1001
ACAD
1000
AcDbSavedByObjectVersion
1070
     0
  0
VISUALSTYLE
  5
30
102
{ACAD_REACTORS
330
2A
102
}
102
{ACAD_XDICTIONARY
360
1BB
102
}
330
2A
100
AcDbVisualStyle
  2
Wireframe
 70
     5
 71
     0
 72
     2
 73
     0
 90
        0
 40
0.6
 41
30.0
 62
     5
 63
     7
421
 16777215
 74
     1
 91
        4
 64
     7
 65
   257
 75
     1
175
     1
 42
1.0
 92
        0
 66
   257
 43
1.0
 76
     1
 77
     6
 78
     2
 67
     7
 79
     3
170
     0
171
     0
290
     0
174
     0
 93
        1
 44
0.0
173
     0
291
     0
 45
0.0
1001
ACAD
1000
AcDbSavedByObjectVersion
1070
     0
  0
VISUALSTYLE
  5
40
102
{ACAD_REACTORS
330
2A
102
}
102
{ACAD_XDICTIONARY
360
1DB
102
}
330
2A
100
AcDbVisualStyle
  2
X-Ray
 70
    25
 71
     2
 72
     2
 73
     1
 90
        1
 40
0.5
 41
30.0
 62
     5
 63
     7
421
 16777215
 74
     1
 91
        0
 64
     7
 65
   257
 75
     1
175
     1
 42
1.0
 92
        8
 66
     7
 43
1.0
 76
     1
 77
     6
 78
     2
 67
     7
 79
     3
170
     0
171
     0
290
     0
174
     0
 93
       13
 44
0.0
173
     0
291
     0
 45
0.0
1001
ACAD
1000
AcDbSavedByObjectVersion
1070
     0
  0
DICTIONARYVAR
  5
1AE
102
{ACAD_REACTORS
330
1AD
102
}
330
1AD
100
DictionaryVariables
280
     0
  1
1:1
  0
DICTIONARYVAR
  5
1EF
102
{ACAD_REACTORS
330
1AD
102
}
330
1AD
100
DictionaryVariables
280
     0
  1
Standard
  0
DICTIONARYVAR
  5
1EE
102
{ACAD_REACTORS
330
1AD
102
}
330
1AD
100
DictionaryVariables
280
     0
  1
Standard
  0
DICTIONARYVAR
  5
1AF
102
{ACAD_REACTORS
330
1AD
102
}
330
1AD
100
DictionaryVariables
280
     0
  1
1
  0
DICTIONARYVAR
  5
1B0
102
{ACAD_REACTORS
330
1AD
102
}
330
1AD
100
DictionaryVariables
280
     0
  1
2
  0
DICTIONARY
  5
1E3
330
45
100
AcDbDictionary
280
     1
281
     1
  3
ACAD_XREC_ROUNDTRIP
360
1E4
  0
DICTIONARY
  5
1E1
330
44
100
AcDbDictionary
280
     1
281
     1
  3
ACAD_XREC_ROUNDTRIP
360
1E2
  0
DICTIONARY
  5
1E5
330
46
100
AcDbDictionary
280
     1
281
     1
  3
ACAD_XREC_ROUNDTRIP
360
1E6
  0
DICTIONARY
  5
1EB
330
6C
100
AcDbDictionary
280
     1
281
     1
  3
ACAD_XREC_ROUNDTRIP
360
1EC
  0
DICTIONARY
  5
1E7
330
6A
100
AcDbDictionary
280
     1
281
     1
  3
ACAD_ROUNDTRIP_2008_TABLESTYLE_CELLSTYLEMAP
360
1E9
  3
ACAD_XREC_ROUNDTRIP
360
1E8
  0
DICTIONARY
  5
1B9
330
2F
100
AcDbDictionary
280
     1
281
     1
  3
ACAD_XREC_ROUNDTRIP
360
1BA
  0
DICTIONARY
  5
1BF
330
32
100
AcDbDictionary
280
     1
281
     1
  3
ACAD_XREC_ROUNDTRIP
360
1C0
  0
DICTIONARY
  5
1C7
330
36
100
AcDbDictionary
280
     1
281
     1
  3
ACAD_XREC_ROUNDTRIP
360
1C8
  0
DICTIONARY
  5
1CF
330
3A
100
AcDbDictionary
280
     1
281
     1
  3
ACAD_XREC_ROUNDTRIP
360
1D0
  0
DICTIONARY
  5
1C3
330
34
100
AcDbDictionary
280
     1
281
     1
  3
ACAD_XREC_ROUNDTRIP
360
1C4
  0
DICTIONARY
  5
1C5
330
35
100
AcDbDictionary
280
     1
281
     1
  3
ACAD_XREC_ROUNDTRIP
360
1C6
  0
DICTIONARY
  5
1D5
330
3D
100
AcDbDictionary
280
     1
281
     1
  3
ACAD_XREC_ROUNDTRIP
360
1D6
  0
DICTIONARY
  5
1CD
330
39
100
AcDbDictionary
280
     1
281
     1
  3
ACAD_XREC_ROUNDTRIP
360
1CE
  0
DICTIONARY
  5
1B1
330
2B
100
AcDbDictionary
280
     1
281
     1
  3
ACAD_XREC_ROUNDTRIP
360
1B2
  0
DICTIONARY
  5
1B3
330
2C
100
AcDbDictionary
280
     1
281
     1
  3
ACAD_XREC_ROUNDTRIP
360
1B4
  0
DICTIONARY
  5
1B5
330
2D
100
AcDbDictionary
280
     1
281
     1
  3
ACAD_XREC_ROUNDTRIP
360
1B6
  0
DICTIONARY
  5
1B7
330
2E
100
AcDbDictionary
280
     1
281
     1
  3
ACAD_XREC_ROUNDTRIP
360
1B8
  0
DICTIONARY
  5
1BD
330
31
100
AcDbDictionary
280
     1
281
     1
  3
ACAD_XREC_ROUNDTRIP
360
1BE
  0
DICTIONARY
  5
1D1
330
3B
100
AcDbDictionary
280
     1
281
     1
  3
ACAD_XREC_ROUNDTRIP
360
1D2
  0
DICTIONARY
  5
1CB
330
38
100
AcDbDictionary
280
     1
281
     1
  3
ACAD_XREC_ROUNDTRIP
360
1CC
  0
DICTIONARY
  5
1D3
330
3C
100
AcDbDictionary
280
     1
281
     1
  3
ACAD_XREC_ROUNDTRIP
360
1D4
  0
DICTIONARY
  5
1C1
330
33
100
AcDbDictionary
280
     1
281
     1
  3
ACAD_XREC_ROUNDTRIP
360
1C2
  0
DICTIONARY
  5
1DF
330
42
100
AcDbDictionary
280
     1
281
     1
  3
ACAD_XREC_ROUNDTRIP
360
1E0
  0
DICTIONARY
  5
1DD
330
41
100
AcDbDictionary
280
     1
281
     1
  3
ACAD_XREC_ROUNDTRIP
360
1DE
  0
DICTIONARY
  5
1D7
330
3E
100
AcDbDictionary
280
     1
281
     1
  3
ACAD_XREC_ROUNDTRIP
360
1D8
  0
DICTIONARY
  5
1D9
330
3F
100
AcDbDictionary
280
     1
281
     1
  3
ACAD_XREC_ROUNDTRIP
360
1DA
  0
DICTIONARY
  5
1C9
330
37
100
AcDbDictionary
280
     1
281
     1
  3
ACAD_XREC_ROUNDTRIP
360
1CA
  0
DICTIONARY
  5
1BB
330
30
100
AcDbDictionary
280
     1
281
     1
  3
ACAD_XREC_ROUNDTRIP
360
1BC
  0
DICTIONARY
  5
1DB
330
40
100
AcDbDictionary
280
     1
281
     1
  3
ACAD_XREC_ROUNDTRIP
360
1DC
  0
XRECORD
  5
1E4
102
{ACAD_REACTORS
330
1E3
102
}
330
1E3
100
AcDbXrecord
280
     1
102
MATERIAL
148
0.0
149
0.0
149
0.0
 93
        0
 94
      127
282
     0
 72
     1
 77
     1
171
     1
175
     1
179
     1
273
     0
  0
XRECORD
  5
1E2
102
{ACAD_REACTORS
330
1E1
102
}
330
1E1
100
AcDbXrecord
280
     1
102
MATERIAL
148
0.0
149
0.0
149
0.0
 93
        0
 94
      127
282
     0
 72
     1
 77
     1
171
     1
175
     1
179
     1
273
     0
  0
XRECORD
  5
1E6
102
{ACAD_REACTORS
330
1E5
102
}
330
1E5
100
AcDbXrecord
280
     1
102
MATERIAL
148
0.0
149
0.0
149
0.0
 93
        0
 94
      127
282
     0
 72
     1
 77
     1
171
     1
175
     1
179
     1
273
     0
  0
XRECORD
  5
1EC
102
{ACAD_REACTORS
330
1EB
102
}
330
1EB
100
AcDbXrecord
280
     1
102
ACAD_ROUNDTRIP_2010_MLEADER_STYLE
  0
CELLSTYLEMAP
  5
1E9
102
{ACAD_REACTORS
330
1E7
102
}
330
1E7
100
AcDbCellStyleMap
 90
        3
300
CELLSTYLE
  1
TABLEFORMAT_BEGIN
 90
        5
170
     1
 91
        0
 92
    32768
 62
   257
 93
        1
300
CONTENTFORMAT
  1
CONTENTFORMAT_BEGIN
 90
        0
 91
        0
 92
        4
 93
        0
300

 40
0.0
140
1.0
 94
        5
 62
     0
340
11
144
0.25
309
CONTENTFORMAT_END
171
     1
301
MARGIN
  1
CELLMARGIN_BEGIN
 40
0.06
 40
0.06
 40
0.06
 40
0.06
 40
0.06
 40
0.06
309
CELLMARGIN_END
 94
        6
 95
        1
302
GRIDFORMAT
  1
GRIDFORMAT_BEGIN
 90
        0
 91
        1
 62
     0
 92
       -2
340
14
 93
        0
 40
0.045
309
GRIDFORMAT_END
 95
        2
302
GRIDFORMAT
  1
GRIDFORMAT_BEGIN
 90
        0
 91
        1
 62
     0
 92
       -2
340
14
 93
        0
 40
0.045
309
GRIDFORMAT_END
 95
        4
302
GRIDFORMAT
  1
GRIDFORMAT_BEGIN
 90
        0
 91
        1
 62
     0
 92
       -2
340
14
 93
        0
 40
0.045
309
GRIDFORMAT_END
 95
        8
302
GRIDFORMAT
  1
GRIDFORMAT_BEGIN
 90
        0
 91
        1
 62
     0
 92
       -2
340
14
 93
        0
 40
0.045
309
GRIDFORMAT_END
 95
       16
302
GRIDFORMAT
  1
GRIDFORMAT_BEGIN
 90
        0
 91
        1
 62
     0
 92
       -2
340
14
 93
        0
 40
0.045
309
GRIDFORMAT_END
 95
       32
302
GRIDFORMAT
  1
GRIDFORMAT_BEGIN
 90
        0
 91
        1
 62
     0
 92
       -2
340
14
 93
        0
 40
0.045
309
GRIDFORMAT_END
309
TABLEFORMAT_END
  1
CELLSTYLE_BEGIN
 90
        1
 91
        1
300
_TITLE
309
CELLSTYLE_END
300
CELLSTYLE
  1
TABLEFORMAT_BEGIN
 90
        5
170
     1
 91
        0
 92
        0
 62
   257
 93
        1
300
CONTENTFORMAT
  1
CONTENTFORMAT_BEGIN
 90
        0
 91
        0
 92
        4
 93
        0
300

 40
0.0
140
1.0
 94
        5
 62
     0
340
11
144
0.18
309
CONTENTFORMAT_END
171
     1
301
MARGIN
  1
CELLMARGIN_BEGIN
 40
0.06
 40
0.06
 40
0.06
 40
0.06
 40
0.06
 40
0.06
309
CELLMARGIN_END
 94
        6
 95
        1
302
GRIDFORMAT
  1
GRIDFORMAT_BEGIN
 90
        0
 91
        1
 62
     0
 92
       -2
340
14
 93
        0
 40
0.045
309
GRIDFORMAT_END
 95
        2
302
GRIDFORMAT
  1
GRIDFORMAT_BEGIN
 90
        0
 91
        1
 62
     0
 92
       -2
340
14
 93
        0
 40
0.045
309
GRIDFORMAT_END
 95
        4
302
GRIDFORMAT
  1
GRIDFORMAT_BEGIN
 90
        0
 91
        1
 62
     0
 92
       -2
340
14
 93
        0
 40
0.045
309
GRIDFORMAT_END
 95
        8
302
GRIDFORMAT
  1
GRIDFORMAT_BEGIN
 90
        0
 91
        1
 62
     0
 92
       -2
340
14
 93
        0
 40
0.045
309
GRIDFORMAT_END
 95
       16
302
GRIDFORMAT
  1
GRIDFORMAT_BEGIN
 90
        0
 91
        1
 62
     0
 92
       -2
340
14
 93
        0
 40
0.045
309
GRIDFORMAT_END
 95
       32
302
GRIDFORMAT
  1
GRIDFORMAT_BEGIN
 90
        0
 91
        1
 62
     0
 92
       -2
340
14
 93
        0
 40
0.045
309
GRIDFORMAT_END
309
TABLEFORMAT_END
  1
CELLSTYLE_BEGIN
 90
        2
 91
        1
300
_HEADER
309
CELLSTYLE_END
300
CELLSTYLE
  1
TABLEFORMAT_BEGIN
 90
        5
170
     1
 91
        0
 92
        0
 62
   257
 93
        1
300
CONTENTFORMAT
  1
CONTENTFORMAT_BEGIN
 90
        0
 91
        0
 92
        4
 93
        0
300

 40
0.0
140
1.0
 94
        2
 62
     0
340
11
144
0.18
309
CONTENTFORMAT_END
171
     1
301
MARGIN
  1
CELLMARGIN_BEGIN
 40
0.06
 40
0.06
 40
0.06
 40
0.06
 40
0.06
 40
0.06
309
CELLMARGIN_END
 94
        6
 95
        1
302
GRIDFORMAT
  1
GRIDFORMAT_BEGIN
 90
        0
 91
        1
 62
     0
 92
       -2
340
14
 93
        0
 40
0.045
309
GRIDFORMAT_END
 95
        2
302
GRIDFORMAT
  1
GRIDFORMAT_BEGIN
 90
        0
 91
        1
 62
     0
 92
       -2
340
14
 93
        0
 40
0.045
309
GRIDFORMAT_END
 95
        4
302
GRIDFORMAT
  1
GRIDFORMAT_BEGIN
 90
        0
 91
        1
 62
     0
 92
       -2
340
14
 93
        0
 40
0.045
309
GRIDFORMAT_END
 95
        8
302
GRIDFORMAT
  1
GRIDFORMAT_BEGIN
 90
        0
 91
        1
 62
     0
 92
       -2
340
14
 93
        0
 40
0.045
309
GRIDFORMAT_END
 95
       16
302
GRIDFORMAT
  1
GRIDFORMAT_BEGIN
 90
        0
 91
        1
 62
     0
 92
       -2
340
14
 93
        0
 40
0.045
309
GRIDFORMAT_END
 95
       32
302
GRIDFORMAT
  1
GRIDFORMAT_BEGIN
 90
        0
 91
        1
 62
     0
 92
       -2
340
14
 93
        0
 40
0.045
309
GRIDFORMAT_END
309
TABLEFORMAT_END
  1
CELLSTYLE_BEGIN
 90
        3
 91
        2
300
_DATA
309
CELLSTYLE_END
  0
XRECORD
  5
1E8
102
{ACAD_REACTORS
330
1E7
102
}
330
1E7
100
AcDbXrecord
280
     1
102
ACAD_ROUNDTRIP_PRE2007_TABLESTYLE
 90
        4
 91
        0
  1

 92
        4
 93
        0
  2

 94
        4
 95
        0
  3

  0
XRECORD
  5
1BA
102
{ACAD_REACTORS
330
1B9
102
}
330
1B9
100
AcDbXrecord
280
     1
102
RTVSPropertyOp0
 70
     1
102
RTVSPropertyOp1
 70
     1
102
RTVSPropertyOp2
 70
     1
102
RTVSPropertyOp3
 70
     1
102
RTVSPropertyOp4
 70
     1
102
RTVSPropertyOp5
 70
     1
102
RTVSPropertyOp6
 70
     1
102
RTVSPropertyOp7
 70
     1
102
RTVSPropertyOp8
 70
     1
102
RTVSPropertyOp9
 70
     1
102
RTVSPropertyOp10
 70
     1
102
RTVSPropertyOp11
 70
     1
102
RTVSPropertyOp12
 70
     1
102
RTVSPropertyOp13
 70
     1
102
RTVSPropertyOp14
 70
     1
102
RTVSPropertyOp15
 70
     1
102
RTVSPropertyOp16
 70
     1
102
RTVSPropertyOp17
 70
     1
102
RTVSPropertyOp18
 70
     1
102
RTVSPropertyOp19
 70
     1
102
RTVSPropertyOp20
 70
     1
102
RTVSPropertyOp21
 70
     1
102
RTVSPropertyOp22
 70
     1
102
RTVSPropertyOp23
 70
     1
102
RTVSPropertyOp24
 70
     1
102
RTVSPropertyOp25
 70
     1
102
RTVSPropertyOp26
 70
     1
102
RTVSPropertyOp27
 70
     1
102
RTVSPropertyOp28
 70
     1
102
RTVSPropertyOp29
 70
     1
102
RTVSPropertyOp30
 70
     1
102
RTVSPropertyOp31
 70
     1
102
RTVSPropertyOp32
 70
     1
102
RTVSPropertyOp33
 70
     1
102
RTVSPropertyOp34
 70
     1
102
RTVSPropertyOp35
 70
     1
102
RTVSPropertyOp36
 70
     1
102
RTVSPropertyOp37
 70
     1
102
RTVSPropertyOp38
 70
     1
102
RTVSPropertyOp39
 70
     1
102
RTVSPropertyOp40
 70
     1
102
RTVSPropertyOp41
 70
     1
102
RTVSPropertyOp42
 70
     1
102
RTVSPropertyOp43
 70
     1
102
RTVSPropertyOp44
 70
     1
102
RTVSPropertyOp45
 70
     1
102
RTVSPropertyOp46
 70
     1
102
RTVSPropertyOp47
 70
     1
102
RTVSPropertyOp48
 70
     1
102
RTVSPropertyOp49
 70
     1
102
RTVSPropertyOp50
 70
     1
102
RTVSPropertyOp51
 70
     0
102
RTVSPropertyOp52
 70
     0
102
RTVSPropertyOp53
 70
     1
102
RTVSPropertyOp54
 70
     1
102
RTVSPropertyOp55
 70
     1
102
RTVSPropertyOp56
 70
     1
102
RTVSPropertyOp57
 70
     1
102
RTVSPost2010Prop28
280
     1
102
RTVSPost2010PropOp28
 70
     1
102
RTVSPost2010Prop29
280
     1
102
RTVSPost2010PropOp29
 70
     1
102
RTVSPost2010Prop30
280
     0
102
RTVSPost2010PropOp30
 70
     1
102
RTVSPost2010Prop31
280
     0
102
RTVSPost2010PropOp31
 70
     1
102
RTVSPost2010Prop32
280
     0
102
RTVSPost2010PropOp32
 70
     1
102
RTVSPost2010Prop33
280
     0
102
RTVSPost2010PropOp33
 70
     1
102
RTVSPost2010Prop34
280
     0
102
RTVSPost2010PropOp34
 70
     1
102
RTVSPost2010Prop35
280
     0
102
RTVSPost2010PropOp35
 70
     1
102
RTVSPost2010Prop36
280
     0
102
RTVSPost2010PropOp36
 70
     1
102
RTVSPost2010Prop37
 90
       50
102
RTVSPost2010PropOp37
 70
     1
102
RTVSPost2010Prop38
140
0.0
102
RTVSPost2010PropOp38
 70
     1
102
RTVSPost2010Prop39
140
1.0
102
RTVSPost2010PropOp39
 70
     1
102
RTVSPost2010Prop40
 90
        0
102
RTVSPost2010PropOp40
 70
     1
102
RTVSPost2010Prop41ColorIndex
 90
       18
102
RTVSPost2010Prop41ColorRGB
 90
        0
102
RTVSPost2010PropOp41
 70
     1
102
RTVSPost2010Prop42
 90
       50
102
RTVSPost2010PropOp42
 70
     1
102
RTVSPost2010Prop43
 90
        3
102
RTVSPost2010PropOp43
 70
     1
102
RTVSPost2010Prop44ColorIndex
 90
        5
102
RTVSPost2010Prop44ColorRGB
 90
      255
102
RTVSPost2010PropOp44
 70
     1
102
RTVSPost2010Prop45
280
     0
102
RTVSPost2010PropOp45
 70
     1
102
RTVSPost2010Prop46
 90
       50
102
RTVSPost2010PropOp46
 70
     1
102
RTVSPost2010Prop47
 90
       50
102
RTVSPost2010PropOp47
 70
     1
102
RTVSPost2010Prop48
 90
       50
102
RTVSPost2010PropOp48
 70
     1
102
RTVSPost2010Prop49
280
     0
102
RTVSPost2010PropOp49
 70
     1
102
RTVSPost2010Prop50
 90
       50
102
RTVSPost2010PropOp50
 70
     1
102
RTVSPost2010Prop51ColorIndex
 90
      256
102
RTVSPost2010Prop51ColorRGB
 90
-16777216
102
RTVSPost2010PropOp51
 70
     0
102
RTVSPost2010Prop52
140
1.0
102
RTVSPost2010PropOp52
 70
     0
102
RTVSPost2010Prop53
 90
        2
102
RTVSPost2010PropOp53
 70
     1
102
RTVSPost2010Prop54
  1
strokes_ogs.tif
102
RTVSPost2010PropOp54
 70
     1
102
RTVSPost2010Prop55
280
     0
102
RTVSPost2010PropOp55
 70
     1
102
RTVSPost2010Prop56
140
1.0
102
RTVSPost2010PropOp56
 70
     1
102
RTVSPost2010Prop57
140
1.0
102
RTVSPost2010PropOp57
 70
     1
  0
XRECORD
  5
1C0
102
{ACAD_REACTORS
330
1BF
102
}
330
1BF
100
AcDbXrecord
280
     1
102
RTVSPropertyOp0
 70
     1
102
RTVSPropertyOp1
 70
     1
102
RTVSPropertyOp2
 70
     1
102
RTVSPropertyOp3
 70
     1
102
RTVSPropertyOp4
 70
     1
102
RTVSPropertyOp5
 70
     1
102
RTVSPropertyOp6
 70
     1
102
RTVSPropertyOp7
 70
     1
102
RTVSPropertyOp8
 70
     1
102
RTVSPropertyOp9
 70
     1
102
RTVSPropertyOp10
 70
     1
102
RTVSPropertyOp11
 70
     1
102
RTVSPropertyOp12
 70
     1
102
RTVSPropertyOp13
 70
     1
102
RTVSPropertyOp14
 70
     1
102
RTVSPropertyOp15
 70
     1
102
RTVSPropertyOp16
 70
     1
102
RTVSPropertyOp17
 70
     1
102
RTVSPropertyOp18
 70
     1
102
RTVSPropertyOp19
 70
     1
102
RTVSPropertyOp20
 70
     1
102
RTVSPropertyOp21
 70
     1
102
RTVSPropertyOp22
 70
     1
102
RTVSPropertyOp23
 70
     1
102
RTVSPropertyOp24
 70
     1
102
RTVSPropertyOp25
 70
     1
102
RTVSPropertyOp26
 70
     1
102
RTVSPropertyOp27
 70
     1
102
RTVSPropertyOp28
 70
     1
102
RTVSPropertyOp29
 70
     1
102
RTVSPropertyOp30
 70
     1
102
RTVSPropertyOp31
 70
     1
102
RTVSPropertyOp32
 70
     1
102
RTVSPropertyOp33
 70
     1
102
RTVSPropertyOp34
 70
     1
102
RTVSPropertyOp35
 70
     1
102
RTVSPropertyOp36
 70
     1
102
RTVSPropertyOp37
 70
     1
102
RTVSPropertyOp38
 70
     1
102
RTVSPropertyOp39
 70
     1
102
RTVSPropertyOp40
 70
     1
102
RTVSPropertyOp41
 70
     1
102
RTVSPropertyOp42
 70
     1
102
RTVSPropertyOp43
 70
     1
102
RTVSPropertyOp44
 70
     1
102
RTVSPropertyOp45
 70
     1
102
RTVSPropertyOp46
 70
     1
102
RTVSPropertyOp47
 70
     1
102
RTVSPropertyOp48
 70
     1
102
RTVSPropertyOp49
 70
     1
102
RTVSPropertyOp50
 70
     1
102
RTVSPropertyOp51
 70
     0
102
RTVSPropertyOp52
 70
     0
102
RTVSPropertyOp53
 70
     1
102
RTVSPropertyOp54
 70
     1
102
RTVSPropertyOp55
 70
     1
102
RTVSPropertyOp56
 70
     1
102
RTVSPropertyOp57
 70
     1
102
RTVSPost2010Prop28
280
     0
102
RTVSPost2010PropOp28
 70
     1
102
RTVSPost2010Prop29
280
     1
102
RTVSPost2010PropOp29
 70
     1
102
RTVSPost2010Prop30
280
     1
102
RTVSPost2010PropOp30
 70
     1
102
RTVSPost2010Prop31
280
     0
102
RTVSPost2010PropOp31
 70
     1
102
RTVSPost2010Prop32
280
     0
102
RTVSPost2010PropOp32
 70
     1
102
RTVSPost2010Prop33
280
     0
102
RTVSPost2010PropOp33
 70
     1
102
RTVSPost2010Prop34
280
     0
102
RTVSPost2010PropOp34
 70
     1
102
RTVSPost2010Prop35
280
     0
102
RTVSPost2010PropOp35
 70
     1
102
RTVSPost2010Prop36
280
     0
102
RTVSPost2010PropOp36
 70
     1
102
RTVSPost2010Prop37
 90
       50
102
RTVSPost2010PropOp37
 70
     1
102
RTVSPost2010Prop38
140
0.0
102
RTVSPost2010PropOp38
 70
     1
102
RTVSPost2010Prop39
140
1.0
102
RTVSPost2010PropOp39
 70
     1
102
RTVSPost2010Prop40
 90
        0
102
RTVSPost2010PropOp40
 70
     1
102
RTVSPost2010Prop41ColorIndex
 90
       18
102
RTVSPost2010Prop41ColorRGB
 90
        0
102
RTVSPost2010PropOp41
 70
     1
102
RTVSPost2010Prop42
 90
       50
102
RTVSPost2010PropOp42
 70
     1
102
RTVSPost2010Prop43
 90
        3
102
RTVSPost2010PropOp43
 70
     1
102
RTVSPost2010Prop44ColorIndex
 90
        5
102
RTVSPost2010Prop44ColorRGB
 90
      255
102
RTVSPost2010PropOp44
 70
     1
102
RTVSPost2010Prop45
280
     0
102
RTVSPost2010PropOp45
 70
     1
102
RTVSPost2010Prop46
 90
       50
102
RTVSPost2010PropOp46
 70
     1
102
RTVSPost2010Prop47
 90
       50
102
RTVSPost2010PropOp47
 70
     1
102
RTVSPost2010Prop48
 90
       50
102
RTVSPost2010PropOp48
 70
     1
102
RTVSPost2010Prop49
280
     0
102
RTVSPost2010PropOp49
 70
     1
102
RTVSPost2010Prop50
 90
       50
102
RTVSPost2010PropOp50
 70
     1
102
RTVSPost2010Prop51ColorIndex
 90
      256
102
RTVSPost2010Prop51ColorRGB
 90
-16777216
102
RTVSPost2010PropOp51
 70
     0
102
RTVSPost2010Prop52
140
1.0
102
RTVSPost2010PropOp52
 70
     0
102
RTVSPost2010Prop53
 90
        2
102
RTVSPost2010PropOp53
 70
     1
102
RTVSPost2010Prop54
  1
strokes_ogs.tif
102
RTVSPost2010PropOp54
 70
     1
102
RTVSPost2010Prop55
280
     0
102
RTVSPost2010PropOp55
 70
     1
102
RTVSPost2010Prop56
140
1.0
102
RTVSPost2010PropOp56
 70
     1
102
RTVSPost2010Prop57
140
1.0
102
RTVSPost2010PropOp57
 70
     1
  0
XRECORD
  5
1C8
102
{ACAD_REACTORS
330
1C7
102
}
330
1C7
100
AcDbXrecord
280
     1
102
RTVSPropertyOp0
 70
     1
102
RTVSPropertyOp1
 70
     1
102
RTVSPropertyOp2
 70
     1
102
RTVSPropertyOp3
 70
     1
102
RTVSPropertyOp4
 70
     1
102
RTVSPropertyOp5
 70
     1
102
RTVSPropertyOp6
 70
     1
102
RTVSPropertyOp7
 70
     1
102
RTVSPropertyOp8
 70
     1
102
RTVSPropertyOp9
 70
     1
102
RTVSPropertyOp10
 70
     1
102
RTVSPropertyOp11
 70
     1
102
RTVSPropertyOp12
 70
     1
102
RTVSPropertyOp13
 70
     1
102
RTVSPropertyOp14
 70
     1
102
RTVSPropertyOp15
 70
     1
102
RTVSPropertyOp16
 70
     1
102
RTVSPropertyOp17
 70
     1
102
RTVSPropertyOp18
 70
     1
102
RTVSPropertyOp19
 70
     1
102
RTVSPropertyOp20
 70
     1
102
RTVSPropertyOp21
 70
     1
102
RTVSPropertyOp22
 70
     1
102
RTVSPropertyOp23
 70
     1
102
RTVSPropertyOp24
 70
     1
102
RTVSPropertyOp25
 70
     1
102
RTVSPropertyOp26
 70
     1
102
RTVSPropertyOp27
 70
     1
102
RTVSPropertyOp28
 70
     1
102
RTVSPropertyOp29
 70
     1
102
RTVSPropertyOp30
 70
     1
102
RTVSPropertyOp31
 70
     1
102
RTVSPropertyOp32
 70
     1
102
RTVSPropertyOp33
 70
     1
102
RTVSPropertyOp34
 70
     1
102
RTVSPropertyOp35
 70
     1
102
RTVSPropertyOp36
 70
     1
102
RTVSPropertyOp37
 70
     1
102
RTVSPropertyOp38
 70
     1
102
RTVSPropertyOp39
 70
     1
102
RTVSPropertyOp40
 70
     1
102
RTVSPropertyOp41
 70
     1
102
RTVSPropertyOp42
 70
     1
102
RTVSPropertyOp43
 70
     1
102
RTVSPropertyOp44
 70
     1
102
RTVSPropertyOp45
 70
     1
102
RTVSPropertyOp46
 70
     1
102
RTVSPropertyOp47
 70
     1
102
RTVSPropertyOp48
 70
     1
102
RTVSPropertyOp49
 70
     1
102
RTVSPropertyOp50
 70
     1
102
RTVSPropertyOp51
 70
     0
102
RTVSPropertyOp52
 70
     0
102
RTVSPropertyOp53
 70
     1
102
RTVSPropertyOp54
 70
     1
102
RTVSPropertyOp55
 70
     1
102
RTVSPropertyOp56
 70
     1
102
RTVSPropertyOp57
 70
     1
102
RTVSPost2010Prop28
280
     0
102
RTVSPost2010PropOp28
 70
     1
102
RTVSPost2010Prop29
280
     1
102
RTVSPost2010PropOp29
 70
     1
102
RTVSPost2010Prop30
280
     1
102
RTVSPost2010PropOp30
 70
     1
102
RTVSPost2010Prop31
280
     0
102
RTVSPost2010PropOp31
 70
     1
102
RTVSPost2010Prop32
280
     0
102
RTVSPost2010PropOp32
 70
     1
102
RTVSPost2010Prop33
280
     0
102
RTVSPost2010PropOp33
 70
     1
102
RTVSPost2010Prop34
280
     0
102
RTVSPost2010PropOp34
 70
     1
102
RTVSPost2010Prop35
280
     0
102
RTVSPost2010PropOp35
 70
     1
102
RTVSPost2010Prop36
280
     0
102
RTVSPost2010PropOp36
 70
     1
102
RTVSPost2010Prop37
 90
       50
102
RTVSPost2010PropOp37
 70
     1
102
RTVSPost2010Prop38
140
0.0
102
RTVSPost2010PropOp38
 70
     1
102
RTVSPost2010Prop39
140
1.0
102
RTVSPost2010PropOp39
 70
     1
102
RTVSPost2010Prop40
 90
        0
102
RTVSPost2010PropOp40
 70
     1
102
RTVSPost2010Prop41ColorIndex
 90
       18
102
RTVSPost2010Prop41ColorRGB
 90
        0
102
RTVSPost2010PropOp41
 70
     1
102
RTVSPost2010Prop42
 90
       50
102
RTVSPost2010PropOp42
 70
     1
102
RTVSPost2010Prop43
 90
        3
102
RTVSPost2010PropOp43
 70
     1
102
RTVSPost2010Prop44ColorIndex
 90
        5
102
RTVSPost2010Prop44ColorRGB
 90
      255
102
RTVSPost2010PropOp44
 70
     1
102
RTVSPost2010Prop45
280
     0
102
RTVSPost2010PropOp45
 70
     1
102
RTVSPost2010Prop46
 90
       50
102
RTVSPost2010PropOp46
 70
     1
102
RTVSPost2010Prop47
 90
       50
102
RTVSPost2010PropOp47
 70
     1
102
RTVSPost2010Prop48
 90
       50
102
RTVSPost2010PropOp48
 70
     1
102
RTVSPost2010Prop49
280
     0
102
RTVSPost2010PropOp49
 70
     1
102
RTVSPost2010Prop50
 90
       50
102
RTVSPost2010PropOp50
 70
     1
102
RTVSPost2010Prop51ColorIndex
 90
      256
102
RTVSPost2010Prop51ColorRGB
 90
-16777216
102
RTVSPost2010PropOp51
 70
     0
102
RTVSPost2010Prop52
140
1.0
102
RTVSPost2010PropOp52
 70
     0
102
RTVSPost2010Prop53
 90
        2
102
RTVSPost2010PropOp53
 70
     1
102
RTVSPost2010Prop54
  1
strokes_ogs.tif
102
RTVSPost2010PropOp54
 70
     1
102
RTVSPost2010Prop55
280
     0
102
RTVSPost2010PropOp55
 70
     1
102
RTVSPost2010Prop56
140
1.0
102
RTVSPost2010PropOp56
 70
     1
102
RTVSPost2010Prop57
140
1.0
102
RTVSPost2010PropOp57
 70
     1
  0
XRECORD
  5
1D0
102
{ACAD_REACTORS
330
1CF
102
}
330
1CF
100
AcDbXrecord
280
     1
102
RTVSPropertyOp0
 70
     1
102
RTVSPropertyOp1
 70
     1
102
RTVSPropertyOp2
 70
     1
102
RTVSPropertyOp3
 70
     1
102
RTVSPropertyOp4
 70
     1
102
RTVSPropertyOp5
 70
     1
102
RTVSPropertyOp6
 70
     1
102
RTVSPropertyOp7
 70
     1
102
RTVSPropertyOp8
 70
     1
102
RTVSPropertyOp9
 70
     1
102
RTVSPropertyOp10
 70
     1
102
RTVSPropertyOp11
 70
     1
102
RTVSPropertyOp12
 70
     1
102
RTVSPropertyOp13
 70
     1
102
RTVSPropertyOp14
 70
     1
102
RTVSPropertyOp15
 70
     1
102
RTVSPropertyOp16
 70
     1
102
RTVSPropertyOp17
 70
     1
102
RTVSPropertyOp18
 70
     1
102
RTVSPropertyOp19
 70
     1
102
RTVSPropertyOp20
 70
     1
102
RTVSPropertyOp21
 70
     1
102
RTVSPropertyOp22
 70
     1
102
RTVSPropertyOp23
 70
     1
102
RTVSPropertyOp24
 70
     1
102
RTVSPropertyOp25
 70
     1
102
RTVSPropertyOp26
 70
     1
102
RTVSPropertyOp27
 70
     1
102
RTVSPropertyOp28
 70
     1
102
RTVSPropertyOp29
 70
     1
102
RTVSPropertyOp30
 70
     1
102
RTVSPropertyOp31
 70
     1
102
RTVSPropertyOp32
 70
     1
102
RTVSPropertyOp33
 70
     1
102
RTVSPropertyOp34
 70
     1
102
RTVSPropertyOp35
 70
     1
102
RTVSPropertyOp36
 70
     1
102
RTVSPropertyOp37
 70
     1
102
RTVSPropertyOp38
 70
     1
102
RTVSPropertyOp39
 70
     1
102
RTVSPropertyOp40
 70
     1
102
RTVSPropertyOp41
 70
     1
102
RTVSPropertyOp42
 70
     1
102
RTVSPropertyOp43
 70
     1
102
RTVSPropertyOp44
 70
     1
102
RTVSPropertyOp45
 70
     1
102
RTVSPropertyOp46
 70
     1
102
RTVSPropertyOp47
 70
     1
102
RTVSPropertyOp48
 70
     1
102
RTVSPropertyOp49
 70
     1
102
RTVSPropertyOp50
 70
     1
102
RTVSPropertyOp51
 70
     0
102
RTVSPropertyOp52
 70
     0
102
RTVSPropertyOp53
 70
     1
102
RTVSPropertyOp54
 70
     1
102
RTVSPropertyOp55
 70
     1
102
RTVSPropertyOp56
 70
     1
102
RTVSPropertyOp57
 70
     1
102
RTVSPost2010Prop28
280
     0
102
RTVSPost2010PropOp28
 70
     1
102
RTVSPost2010Prop29
280
     1
102
RTVSPost2010PropOp29
 70
     1
102
RTVSPost2010Prop30
280
     1
102
RTVSPost2010PropOp30
 70
     1
102
RTVSPost2010Prop31
280
     0
102
RTVSPost2010PropOp31
 70
     1
102
RTVSPost2010Prop32
280
     0
102
RTVSPost2010PropOp32
 70
     1
102
RTVSPost2010Prop33
280
     0
102
RTVSPost2010PropOp33
 70
     1
102
RTVSPost2010Prop34
280
     0
102
RTVSPost2010PropOp34
 70
     1
102
RTVSPost2010Prop35
280
     0
102
RTVSPost2010PropOp35
 70
     1
102
RTVSPost2010Prop36
280
     0
102
RTVSPost2010PropOp36
 70
     1
102
RTVSPost2010Prop37
 90
       50
102
RTVSPost2010PropOp37
 70
     1
102
RTVSPost2010Prop38
140
0.0
102
RTVSPost2010PropOp38
 70
     1
102
RTVSPost2010Prop39
140
1.0
102
RTVSPost2010PropOp39
 70
     1
102
RTVSPost2010Prop40
 90
        0
102
RTVSPost2010PropOp40
 70
     1
102
RTVSPost2010Prop41ColorIndex
 90
       18
102
RTVSPost2010Prop41ColorRGB
 90
        0
102
RTVSPost2010PropOp41
 70
     1
102
RTVSPost2010Prop42
 90
       50
102
RTVSPost2010PropOp42
 70
     1
102
RTVSPost2010Prop43
 90
        3
102
RTVSPost2010PropOp43
 70
     1
102
RTVSPost2010Prop44ColorIndex
 90
        5
102
RTVSPost2010Prop44ColorRGB
 90
      255
102
RTVSPost2010PropOp44
 70
     1
102
RTVSPost2010Prop45
280
     0
102
RTVSPost2010PropOp45
 70
     1
102
RTVSPost2010Prop46
 90
       50
102
RTVSPost2010PropOp46
 70
     1
102
RTVSPost2010Prop47
 90
       50
102
RTVSPost2010PropOp47
 70
     1
102
RTVSPost2010Prop48
 90
       50
102
RTVSPost2010PropOp48
 70
     1
102
RTVSPost2010Prop49
280
     0
102
RTVSPost2010PropOp49
 70
     1
102
RTVSPost2010Prop50
 90
       50
102
RTVSPost2010PropOp50
 70
     1
102
RTVSPost2010Prop51ColorIndex
 90
      256
102
RTVSPost2010Prop51ColorRGB
 90
-16777216
102
RTVSPost2010PropOp51
 70
     0
102
RTVSPost2010Prop52
140
1.0
102
RTVSPost2010PropOp52
 70
     0
102
RTVSPost2010Prop53
 90
        2
102
RTVSPost2010PropOp53
 70
     1
102
RTVSPost2010Prop54
  1
strokes_ogs.tif
102
RTVSPost2010PropOp54
 70
     1
102
RTVSPost2010Prop55
280
     0
102
RTVSPost2010PropOp55
 70
     1
102
RTVSPost2010Prop56
140
1.0
102
RTVSPost2010PropOp56
 70
     1
102
RTVSPost2010Prop57
140
1.0
102
RTVSPost2010PropOp57
 70
     1
  0
XRECORD
  5
1C4
102
{ACAD_REACTORS
330
1C3
102
}
330
1C3
100
AcDbXrecord
280
     1
102
RTVSPropertyOp0
 70
     1
102
RTVSPropertyOp1
 70
     1
102
RTVSPropertyOp2
 70
     1
102
RTVSPropertyOp3
 70
     1
102
RTVSPropertyOp4
 70
     1
102
RTVSPropertyOp5
 70
     1
102
RTVSPropertyOp6
 70
     1
102
RTVSPropertyOp7
 70
     1
102
RTVSPropertyOp8
 70
     1
102
RTVSPropertyOp9
 70
     1
102
RTVSPropertyOp10
 70
     1
102
RTVSPropertyOp11
 70
     1
102
RTVSPropertyOp12
 70
     1
102
RTVSPropertyOp13
 70
     1
102
RTVSPropertyOp14
 70
     1
102
RTVSPropertyOp15
 70
     1
102
RTVSPropertyOp16
 70
     1
102
RTVSPropertyOp17
 70
     1
102
RTVSPropertyOp18
 70
     1
102
RTVSPropertyOp19
 70
     1
102
RTVSPropertyOp20
 70
     1
102
RTVSPropertyOp21
 70
     1
102
RTVSPropertyOp22
 70
     1
102
RTVSPropertyOp23
 70
     1
102
RTVSPropertyOp24
 70
     1
102
RTVSPropertyOp25
 70
     1
102
RTVSPropertyOp26
 70
     1
102
RTVSPropertyOp27
 70
     1
102
RTVSPropertyOp28
 70
     1
102
RTVSPropertyOp29
 70
     1
102
RTVSPropertyOp30
 70
     1
102
RTVSPropertyOp31
 70
     1
102
RTVSPropertyOp32
 70
     1
102
RTVSPropertyOp33
 70
     1
102
RTVSPropertyOp34
 70
     1
102
RTVSPropertyOp35
 70
     1
102
RTVSPropertyOp36
 70
     1
102
RTVSPropertyOp37
 70
     1
102
RTVSPropertyOp38
 70
     1
102
RTVSPropertyOp39
 70
     1
102
RTVSPropertyOp40
 70
     1
102
RTVSPropertyOp41
 70
     1
102
RTVSPropertyOp42
 70
     1
102
RTVSPropertyOp43
 70
     1
102
RTVSPropertyOp44
 70
     1
102
RTVSPropertyOp45
 70
     1
102
RTVSPropertyOp46
 70
     1
102
RTVSPropertyOp47
 70
     1
102
RTVSPropertyOp48
 70
     1
102
RTVSPropertyOp49
 70
     1
102
RTVSPropertyOp50
 70
     1
102
RTVSPropertyOp51
 70
     0
102
RTVSPropertyOp52
 70
     0
102
RTVSPropertyOp53
 70
     1
102
RTVSPropertyOp54
 70
     1
102
RTVSPropertyOp55
 70
     1
102
RTVSPropertyOp56
 70
     1
102
RTVSPropertyOp57
 70
     1
102
RTVSPost2010Prop28
280
     0
102
RTVSPost2010PropOp28
 70
     1
102
RTVSPost2010Prop29
280
     1
102
RTVSPost2010PropOp29
 70
     1
102
RTVSPost2010Prop30
280
     1
102
RTVSPost2010PropOp30
 70
     1
102
RTVSPost2010Prop31
280
     0
102
RTVSPost2010PropOp31
 70
     1
102
RTVSPost2010Prop32
280
     0
102
RTVSPost2010PropOp32
 70
     1
102
RTVSPost2010Prop33
280
     0
102
RTVSPost2010PropOp33
 70
     1
102
RTVSPost2010Prop34
280
     0
102
RTVSPost2010PropOp34
 70
     1
102
RTVSPost2010Prop35
280
     0
102
RTVSPost2010PropOp35
 70
     1
102
RTVSPost2010Prop36
280
     0
102
RTVSPost2010PropOp36
 70
     1
102
RTVSPost2010Prop37
 90
       50
102
RTVSPost2010PropOp37
 70
     1
102
RTVSPost2010Prop38
140
0.0
102
RTVSPost2010PropOp38
 70
     1
102
RTVSPost2010Prop39
140
1.0
102
RTVSPost2010PropOp39
 70
     1
102
RTVSPost2010Prop40
 90
        0
102
RTVSPost2010PropOp40
 70
     1
102
RTVSPost2010Prop41ColorIndex
 90
       18
102
RTVSPost2010Prop41ColorRGB
 90
        0
102
RTVSPost2010PropOp41
 70
     1
102
RTVSPost2010Prop42
 90
       50
102
RTVSPost2010PropOp42
 70
     1
102
RTVSPost2010Prop43
 90
        3
102
RTVSPost2010PropOp43
 70
     1
102
RTVSPost2010Prop44ColorIndex
 90
        5
102
RTVSPost2010Prop44ColorRGB
 90
      255
102
RTVSPost2010PropOp44
 70
     1
102
RTVSPost2010Prop45
280
     0
102
RTVSPost2010PropOp45
 70
     1
102
RTVSPost2010Prop46
 90
       50
102
RTVSPost2010PropOp46
 70
     1
102
RTVSPost2010Prop47
 90
       50
102
RTVSPost2010PropOp47
 70
     1
102
RTVSPost2010Prop48
 90
       50
102
RTVSPost2010PropOp48
 70
     1
102
RTVSPost2010Prop49
280
     0
102
RTVSPost2010PropOp49
 70
     1
102
RTVSPost2010Prop50
 90
       50
102
RTVSPost2010PropOp50
 70
     1
102
RTVSPost2010Prop51ColorIndex
 90
      256
102
RTVSPost2010Prop51ColorRGB
 90
-16777216
102
RTVSPost2010PropOp51
 70
     0
102
RTVSPost2010Prop52
140
1.0
102
RTVSPost2010PropOp52
 70
     0
102
RTVSPost2010Prop53
 90
        2
102
RTVSPost2010PropOp53
 70
     1
102
RTVSPost2010Prop54
  1
strokes_ogs.tif
102
RTVSPost2010PropOp54
 70
     1
102
RTVSPost2010Prop55
280
     0
102
RTVSPost2010PropOp55
 70
     1
102
RTVSPost2010Prop56
140
1.0
102
RTVSPost2010PropOp56
 70
     1
102
RTVSPost2010Prop57
140
1.0
102
RTVSPost2010PropOp57
 70
     1
  0
XRECORD
  5
1C6
102
{ACAD_REACTORS
330
1C5
102
}
330
1C5
100
AcDbXrecord
280
     1
102
RTVSPropertyOp0
 70
     1
102
RTVSPropertyOp1
 70
     1
102
RTVSPropertyOp2
 70
     1
102
RTVSPropertyOp3
 70
     1
102
RTVSPropertyOp4
 70
     1
102
RTVSPropertyOp5
 70
     1
102
RTVSPropertyOp6
 70
     1
102
RTVSPropertyOp7
 70
     1
102
RTVSPropertyOp8
 70
     1
102
RTVSPropertyOp9
 70
     1
102
RTVSPropertyOp10
 70
     1
102
RTVSPropertyOp11
 70
     1
102
RTVSPropertyOp12
 70
     1
102
RTVSPropertyOp13
 70
     1
102
RTVSPropertyOp14
 70
     1
102
RTVSPropertyOp15
 70
     1
102
RTVSPropertyOp16
 70
     1
102
RTVSPropertyOp17
 70
     1
102
RTVSPropertyOp18
 70
     1
102
RTVSPropertyOp19
 70
     1
102
RTVSPropertyOp20
 70
     1
102
RTVSPropertyOp21
 70
     1
102
RTVSPropertyOp22
 70
     1
102
RTVSPropertyOp23
 70
     1
102
RTVSPropertyOp24
 70
     1
102
RTVSPropertyOp25
 70
     1
102
RTVSPropertyOp26
 70
     1
102
RTVSPropertyOp27
 70
     1
102
RTVSPropertyOp28
 70
     1
102
RTVSPropertyOp29
 70
     1
102
RTVSPropertyOp30
 70
     1
102
RTVSPropertyOp31
 70
     1
102
RTVSPropertyOp32
 70
     1
102
RTVSPropertyOp33
 70
     1
102
RTVSPropertyOp34
 70
     1
102
RTVSPropertyOp35
 70
     1
102
RTVSPropertyOp36
 70
     1
102
RTVSPropertyOp37
 70
     1
102
RTVSPropertyOp38
 70
     1
102
RTVSPropertyOp39
 70
     1
102
RTVSPropertyOp40
 70
     1
102
RTVSPropertyOp41
 70
     1
102
RTVSPropertyOp42
 70
     1
102
RTVSPropertyOp43
 70
     1
102
RTVSPropertyOp44
 70
     1
102
RTVSPropertyOp45
 70
     1
102
RTVSPropertyOp46
 70
     1
102
RTVSPropertyOp47
 70
     1
102
RTVSPropertyOp48
 70
     1
102
RTVSPropertyOp49
 70
     1
102
RTVSPropertyOp50
 70
     1
102
RTVSPropertyOp51
 70
     0
102
RTVSPropertyOp52
 70
     0
102
RTVSPropertyOp53
 70
     1
102
RTVSPropertyOp54
 70
     1
102
RTVSPropertyOp55
 70
     1
102
RTVSPropertyOp56
 70
     1
102
RTVSPropertyOp57
 70
     1
102
RTVSPost2010Prop28
280
     0
102
RTVSPost2010PropOp28
 70
     1
102
RTVSPost2010Prop29
280
     1
102
RTVSPost2010PropOp29
 70
     1
102
RTVSPost2010Prop30
280
     1
102
RTVSPost2010PropOp30
 70
     1
102
RTVSPost2010Prop31
280
     0
102
RTVSPost2010PropOp31
 70
     1
102
RTVSPost2010Prop32
280
     0
102
RTVSPost2010PropOp32
 70
     1
102
RTVSPost2010Prop33
280
     0
102
RTVSPost2010PropOp33
 70
     1
102
RTVSPost2010Prop34
280
     0
102
RTVSPost2010PropOp34
 70
     1
102
RTVSPost2010Prop35
280
     0
102
RTVSPost2010PropOp35
 70
     1
102
RTVSPost2010Prop36
280
     0
102
RTVSPost2010PropOp36
 70
     1
102
RTVSPost2010Prop37
 90
       50
102
RTVSPost2010PropOp37
 70
     1
102
RTVSPost2010Prop38
140
0.0
102
RTVSPost2010PropOp38
 70
     1
102
RTVSPost2010Prop39
140
1.0
102
RTVSPost2010PropOp39
 70
     1
102
RTVSPost2010Prop40
 90
        0
102
RTVSPost2010PropOp40
 70
     1
102
RTVSPost2010Prop41ColorIndex
 90
       18
102
RTVSPost2010Prop41ColorRGB
 90
        0
102
RTVSPost2010PropOp41
 70
     1
102
RTVSPost2010Prop42
 90
       50
102
RTVSPost2010PropOp42
 70
     1
102
RTVSPost2010Prop43
 90
        3
102
RTVSPost2010PropOp43
 70
     1
102
RTVSPost2010Prop44ColorIndex
 90
        5
102
RTVSPost2010Prop44ColorRGB
 90
      255
102
RTVSPost2010PropOp44
 70
     1
102
RTVSPost2010Prop45
280
     0
102
RTVSPost2010PropOp45
 70
     1
102
RTVSPost2010Prop46
 90
       50
102
RTVSPost2010PropOp46
 70
     1
102
RTVSPost2010Prop47
 90
       50
102
RTVSPost2010PropOp47
 70
     1
102
RTVSPost2010Prop48
 90
       50
102
RTVSPost2010PropOp48
 70
     1
102
RTVSPost2010Prop49
280
     0
102
RTVSPost2010PropOp49
 70
     1
102
RTVSPost2010Prop50
 90
       50
102
RTVSPost2010PropOp50
 70
     1
102
RTVSPost2010Prop51ColorIndex
 90
      256
102
RTVSPost2010Prop51ColorRGB
 90
-16777216
102
RTVSPost2010PropOp51
 70
     0
102
RTVSPost2010Prop52
140
1.0
102
RTVSPost2010PropOp52
 70
     0
102
RTVSPost2010Prop53
 90
        2
102
RTVSPost2010PropOp53
 70
     1
102
RTVSPost2010Prop54
  1
strokes_ogs.tif
102
RTVSPost2010PropOp54
 70
     1
102
RTVSPost2010Prop55
280
     0
102
RTVSPost2010PropOp55
 70
     1
102
RTVSPost2010Prop56
140
1.0
102
RTVSPost2010PropOp56
 70
     1
102
RTVSPost2010Prop57
140
1.0
102
RTVSPost2010PropOp57
 70
     1
  0
XRECORD
  5
1D6
102
{ACAD_REACTORS
330
1D5
102
}
330
1D5
100
AcDbXrecord
280
     1
102
RTVSPropertyOp0
 70
     0
102
RTVSPropertyOp1
 70
     0
102
RTVSPropertyOp2
 70
     0
102
RTVSPropertyOp3
 70
     0
102
RTVSPropertyOp4
 70
     0
102
RTVSPropertyOp5
 70
     0
102
RTVSPropertyOp6
 70
     0
102
RTVSPropertyOp7
 70
     0
102
RTVSPropertyOp8
 70
     0
102
RTVSPropertyOp9
 70
     0
102
RTVSPropertyOp10
 70
     0
102
RTVSPropertyOp11
 70
     0
102
RTVSPropertyOp12
 70
     0
102
RTVSPropertyOp13
 70
     0
102
RTVSPropertyOp14
 70
     2
102
RTVSPropertyOp15
 70
     0
102
RTVSPropertyOp16
 70
     0
102
RTVSPropertyOp17
 70
     0
102
RTVSPropertyOp18
 70
     0
102
RTVSPropertyOp19
 70
     0
102
RTVSPropertyOp20
 70
     0
102
RTVSPropertyOp21
 70
     0
102
RTVSPropertyOp22
 70
     0
102
RTVSPropertyOp23
 70
     0
102
RTVSPropertyOp24
 70
     0
102
RTVSPropertyOp25
 70
     0
102
RTVSPropertyOp26
 70
     0
102
RTVSPropertyOp27
 70
     0
102
RTVSPropertyOp28
 70
     0
102
RTVSPropertyOp29
 70
     0
102
RTVSPropertyOp30
 70
     0
102
RTVSPropertyOp31
 70
     0
102
RTVSPropertyOp32
 70
     0
102
RTVSPropertyOp33
 70
     0
102
RTVSPropertyOp34
 70
     0
102
RTVSPropertyOp35
 70
     0
102
RTVSPropertyOp36
 70
     0
102
RTVSPropertyOp37
 70
     0
102
RTVSPropertyOp38
 70
     0
102
RTVSPropertyOp39
 70
     0
102
RTVSPropertyOp40
 70
     0
102
RTVSPropertyOp41
 70
     0
102
RTVSPropertyOp42
 70
     0
102
RTVSPropertyOp43
 70
     0
102
RTVSPropertyOp44
 70
     0
102
RTVSPropertyOp45
 70
     0
102
RTVSPropertyOp46
 70
     0
102
RTVSPropertyOp47
 70
     0
102
RTVSPropertyOp48
 70
     0
102
RTVSPropertyOp49
 70
     0
102
RTVSPropertyOp50
 70
     0
102
RTVSPropertyOp51
 70
     0
102
RTVSPropertyOp52
 70
     0
102
RTVSPropertyOp53
 70
     0
102
RTVSPropertyOp54
 70
     0
102
RTVSPropertyOp55
 70
     0
102
RTVSPropertyOp56
 70
     0
102
RTVSPropertyOp57
 70
     0
102
RTVSPost2010Prop28
280
     0
102
RTVSPost2010PropOp28
 70
     0
102
RTVSPost2010Prop29
280
     1
102
RTVSPost2010PropOp29
 70
     0
102
RTVSPost2010Prop30
280
     1
102
RTVSPost2010PropOp30
 70
     0
102
RTVSPost2010Prop31
280
     0
102
RTVSPost2010PropOp31
 70
     0
102
RTVSPost2010Prop32
280
     0
102
RTVSPost2010PropOp32
 70
     0
102
RTVSPost2010Prop33
280
     0
102
RTVSPost2010PropOp33
 70
     0
102
RTVSPost2010Prop34
280
     0
102
RTVSPost2010PropOp34
 70
     0
102
RTVSPost2010Prop35
280
     0
102
RTVSPost2010PropOp35
 70
     0
102
RTVSPost2010Prop36
280
     0
102
RTVSPost2010PropOp36
 70
     0
102
RTVSPost2010Prop37
 90
       50
102
RTVSPost2010PropOp37
 70
     0
102
RTVSPost2010Prop38
140
0.0
102
RTVSPost2010PropOp38
 70
     0
102
RTVSPost2010Prop39
140
1.0
102
RTVSPost2010PropOp39
 70
     0
102
RTVSPost2010Prop40
 90
        0
102
RTVSPost2010PropOp40
 70
     0
102
RTVSPost2010Prop41ColorIndex
 90
       18
102
RTVSPost2010Prop41ColorRGB
 90
        0
102
RTVSPost2010PropOp41
 70
     0
102
RTVSPost2010Prop42
 90
       50
102
RTVSPost2010PropOp42
 70
     0
102
RTVSPost2010Prop43
 90
        3
102
RTVSPost2010PropOp43
 70
     0
102
RTVSPost2010Prop44ColorIndex
 90
        5
102
RTVSPost2010Prop44ColorRGB
 90
      255
102
RTVSPost2010PropOp44
 70
     0
102
RTVSPost2010Prop45
280
     0
102
RTVSPost2010PropOp45
 70
     0
102
RTVSPost2010Prop46
 90
       50
102
RTVSPost2010PropOp46
 70
     0
102
RTVSPost2010Prop47
 90
       50
102
RTVSPost2010PropOp47
 70
     0
102
RTVSPost2010Prop48
 90
       50
102
RTVSPost2010PropOp48
 70
     0
102
RTVSPost2010Prop49
280
     0
102
RTVSPost2010PropOp49
 70
     0
102
RTVSPost2010Prop50
 90
       50
102
RTVSPost2010PropOp50
 70
     0
102
RTVSPost2010Prop51ColorIndex
 90
      256
102
RTVSPost2010Prop51ColorRGB
 90
-16777216
102
RTVSPost2010PropOp51
 70
     0
102
RTVSPost2010Prop52
140
1.0
102
RTVSPost2010PropOp52
 70
     0
102
RTVSPost2010Prop53
 90
        2
102
RTVSPost2010PropOp53
 70
     0
102
RTVSPost2010Prop54
  1
strokes_ogs.tif
102
RTVSPost2010PropOp54
 70
     0
102
RTVSPost2010Prop55
280
     0
102
RTVSPost2010PropOp55
 70
     0
102
RTVSPost2010Prop56
140
1.0
102
RTVSPost2010PropOp56
 70
     0
102
RTVSPost2010Prop57
140
1.0
102
RTVSPost2010PropOp57
 70
     0
  0
XRECORD
  5
1CE
102
{ACAD_REACTORS
330
1CD
102
}
330
1CD
100
AcDbXrecord
280
     1
102
RTVSPropertyOp0
 70
     1
102
RTVSPropertyOp1
 70
     1
102
RTVSPropertyOp2
 70
     1
102
RTVSPropertyOp3
 70
     1
102
RTVSPropertyOp4
 70
     1
102
RTVSPropertyOp5
 70
     1
102
RTVSPropertyOp6
 70
     1
102
RTVSPropertyOp7
 70
     1
102
RTVSPropertyOp8
 70
     1
102
RTVSPropertyOp9
 70
     1
102
RTVSPropertyOp10
 70
     1
102
RTVSPropertyOp11
 70
     1
102
RTVSPropertyOp12
 70
     1
102
RTVSPropertyOp13
 70
     1
102
RTVSPropertyOp14
 70
     1
102
RTVSPropertyOp15
 70
     1
102
RTVSPropertyOp16
 70
     1
102
RTVSPropertyOp17
 70
     1
102
RTVSPropertyOp18
 70
     1
102
RTVSPropertyOp19
 70
     1
102
RTVSPropertyOp20
 70
     1
102
RTVSPropertyOp21
 70
     1
102
RTVSPropertyOp22
 70
     1
102
RTVSPropertyOp23
 70
     1
102
RTVSPropertyOp24
 70
     1
102
RTVSPropertyOp25
 70
     1
102
RTVSPropertyOp26
 70
     1
102
RTVSPropertyOp27
 70
     1
102
RTVSPropertyOp28
 70
     1
102
RTVSPropertyOp29
 70
     1
102
RTVSPropertyOp30
 70
     1
102
RTVSPropertyOp31
 70
     1
102
RTVSPropertyOp32
 70
     1
102
RTVSPropertyOp33
 70
     1
102
RTVSPropertyOp34
 70
     1
102
RTVSPropertyOp35
 70
     1
102
RTVSPropertyOp36
 70
     1
102
RTVSPropertyOp37
 70
     1
102
RTVSPropertyOp38
 70
     1
102
RTVSPropertyOp39
 70
     1
102
RTVSPropertyOp40
 70
     1
102
RTVSPropertyOp41
 70
     1
102
RTVSPropertyOp42
 70
     1
102
RTVSPropertyOp43
 70
     1
102
RTVSPropertyOp44
 70
     1
102
RTVSPropertyOp45
 70
     1
102
RTVSPropertyOp46
 70
     1
102
RTVSPropertyOp47
 70
     1
102
RTVSPropertyOp48
 70
     1
102
RTVSPropertyOp49
 70
     1
102
RTVSPropertyOp50
 70
     1
102
RTVSPropertyOp51
 70
     0
102
RTVSPropertyOp52
 70
     0
102
RTVSPropertyOp53
 70
     1
102
RTVSPropertyOp54
 70
     1
102
RTVSPropertyOp55
 70
     1
102
RTVSPropertyOp56
 70
     1
102
RTVSPropertyOp57
 70
     1
102
RTVSPost2010Prop28
280
     0
102
RTVSPost2010PropOp28
 70
     1
102
RTVSPost2010Prop29
280
     1
102
RTVSPost2010PropOp29
 70
     1
102
RTVSPost2010Prop30
280
     1
102
RTVSPost2010PropOp30
 70
     1
102
RTVSPost2010Prop31
280
     0
102
RTVSPost2010PropOp31
 70
     1
102
RTVSPost2010Prop32
280
     0
102
RTVSPost2010PropOp32
 70
     1
102
RTVSPost2010Prop33
280
     0
102
RTVSPost2010PropOp33
 70
     1
102
RTVSPost2010Prop34
280
     0
102
RTVSPost2010PropOp34
 70
     1
102
RTVSPost2010Prop35
280
     0
102
RTVSPost2010PropOp35
 70
     1
102
RTVSPost2010Prop36
280
     0
102
RTVSPost2010PropOp36
 70
     1
102
RTVSPost2010Prop37
 90
       50
102
RTVSPost2010PropOp37
 70
     1
102
RTVSPost2010Prop38
140
0.0
102
RTVSPost2010PropOp38
 70
     1
102
RTVSPost2010Prop39
140
1.0
102
RTVSPost2010PropOp39
 70
     1
102
RTVSPost2010Prop40
 90
        0
102
RTVSPost2010PropOp40
 70
     1
102
RTVSPost2010Prop41ColorIndex
 90
       18
102
RTVSPost2010Prop41ColorRGB
 90
        0
102
RTVSPost2010PropOp41
 70
     1
102
RTVSPost2010Prop42
 90
       50
102
RTVSPost2010PropOp42
 70
     1
102
RTVSPost2010Prop43
 90
        3
102
RTVSPost2010PropOp43
 70
     1
102
RTVSPost2010Prop44ColorIndex
 90
        5
102
RTVSPost2010Prop44ColorRGB
 90
      255
102
RTVSPost2010PropOp44
 70
     1
102
RTVSPost2010Prop45
280
     0
102
RTVSPost2010PropOp45
 70
     1
102
RTVSPost2010Prop46
 90
       50
102
RTVSPost2010PropOp46
 70
     1
102
RTVSPost2010Prop47
 90
       50
102
RTVSPost2010PropOp47
 70
     1
102
RTVSPost2010Prop48
 90
       50
102
RTVSPost2010PropOp48
 70
     1
102
RTVSPost2010Prop49
280
     0
102
RTVSPost2010PropOp49
 70
     1
102
RTVSPost2010Prop50
 90
       50
102
RTVSPost2010PropOp50
 70
     1
102
RTVSPost2010Prop51ColorIndex
 90
      256
102
RTVSPost2010Prop51ColorRGB
 90
-16777216
102
RTVSPost2010PropOp51
 70
     0
102
RTVSPost2010Prop52
140
1.0
102
RTVSPost2010PropOp52
 70
     0
102
RTVSPost2010Prop53
 90
        2
102
RTVSPost2010PropOp53
 70
     1
102
RTVSPost2010Prop54
  1
strokes_ogs.tif
102
RTVSPost2010PropOp54
 70
     1
102
RTVSPost2010Prop55
280
     0
102
RTVSPost2010PropOp55
 70
     1
102
RTVSPost2010Prop56
140
1.0
102
RTVSPost2010PropOp56
 70
     1
102
RTVSPost2010Prop57
140
1.0
102
RTVSPost2010PropOp57
 70
     1
  0
XRECORD
  5
1B2
102
{ACAD_REACTORS
330
1B1
102
}
330
1B1
100
AcDbXrecord
280
     1
102
RTVSPropertyOp0
 70
     1
102
RTVSPropertyOp1
 70
     1
102
RTVSPropertyOp2
 70
     1
102
RTVSPropertyOp3
 70
     1
102
RTVSPropertyOp4
 70
     1
102
RTVSPropertyOp5
 70
     1
102
RTVSPropertyOp6
 70
     1
102
RTVSPropertyOp7
 70
     1
102
RTVSPropertyOp8
 70
     1
102
RTVSPropertyOp9
 70
     1
102
RTVSPropertyOp10
 70
     1
102
RTVSPropertyOp11
 70
     1
102
RTVSPropertyOp12
 70
     1
102
RTVSPropertyOp13
 70
     1
102
RTVSPropertyOp14
 70
     1
102
RTVSPropertyOp15
 70
     1
102
RTVSPropertyOp16
 70
     1
102
RTVSPropertyOp17
 70
     1
102
RTVSPropertyOp18
 70
     1
102
RTVSPropertyOp19
 70
     1
102
RTVSPropertyOp20
 70
     1
102
RTVSPropertyOp21
 70
     1
102
RTVSPropertyOp22
 70
     1
102
RTVSPropertyOp23
 70
     1
102
RTVSPropertyOp24
 70
     1
102
RTVSPropertyOp25
 70
     1
102
RTVSPropertyOp26
 70
     1
102
RTVSPropertyOp27
 70
     1
102
RTVSPropertyOp28
 70
     1
102
RTVSPropertyOp29
 70
     1
102
RTVSPropertyOp30
 70
     1
102
RTVSPropertyOp31
 70
     1
102
RTVSPropertyOp32
 70
     1
102
RTVSPropertyOp33
 70
     1
102
RTVSPropertyOp34
 70
     1
102
RTVSPropertyOp35
 70
     1
102
RTVSPropertyOp36
 70
     1
102
RTVSPropertyOp37
 70
     1
102
RTVSPropertyOp38
 70
     1
102
RTVSPropertyOp39
 70
     1
102
RTVSPropertyOp40
 70
     1
102
RTVSPropertyOp41
 70
     1
102
RTVSPropertyOp42
 70
     1
102
RTVSPropertyOp43
 70
     1
102
RTVSPropertyOp44
 70
     1
102
RTVSPropertyOp45
 70
     1
102
RTVSPropertyOp46
 70
     1
102
RTVSPropertyOp47
 70
     1
102
RTVSPropertyOp48
 70
     1
102
RTVSPropertyOp49
 70
     1
102
RTVSPropertyOp50
 70
     1
102
RTVSPropertyOp51
 70
     0
102
RTVSPropertyOp52
 70
     0
102
RTVSPropertyOp53
 70
     1
102
RTVSPropertyOp54
 70
     1
102
RTVSPropertyOp55
 70
     1
102
RTVSPropertyOp56
 70
     1
102
RTVSPropertyOp57
 70
     1
102
RTVSPost2010Prop28
280
     0
102
RTVSPost2010PropOp28
 70
     1
102
RTVSPost2010Prop29
280
     1
102
RTVSPost2010PropOp29
 70
     1
102
RTVSPost2010Prop30
280
     1
102
RTVSPost2010PropOp30
 70
     1
102
RTVSPost2010Prop31
280
     0
102
RTVSPost2010PropOp31
 70
     1
102
RTVSPost2010Prop32
280
     0
102
RTVSPost2010PropOp32
 70
     1
102
RTVSPost2010Prop33
280
     0
102
RTVSPost2010PropOp33
 70
     1
102
RTVSPost2010Prop34
280
     0
102
RTVSPost2010PropOp34
 70
     1
102
RTVSPost2010Prop35
280
     0
102
RTVSPost2010PropOp35
 70
     1
102
RTVSPost2010Prop36
280
     0
102
RTVSPost2010PropOp36
 70
     1
102
RTVSPost2010Prop37
 90
       50
102
RTVSPost2010PropOp37
 70
     1
102
RTVSPost2010Prop38
140
0.0
102
RTVSPost2010PropOp38
 70
     1
102
RTVSPost2010Prop39
140
1.0
102
RTVSPost2010PropOp39
 70
     1
102
RTVSPost2010Prop40
 90
        0
102
RTVSPost2010PropOp40
 70
     1
102
RTVSPost2010Prop41ColorIndex
 90
       18
102
RTVSPost2010Prop41ColorRGB
 90
        0
102
RTVSPost2010PropOp41
 70
     1
102
RTVSPost2010Prop42
 90
       50
102
RTVSPost2010PropOp42
 70
     1
102
RTVSPost2010Prop43
 90
        3
102
RTVSPost2010PropOp43
 70
     1
102
RTVSPost2010Prop44ColorIndex
 90
        5
102
RTVSPost2010Prop44ColorRGB
 90
      255
102
RTVSPost2010PropOp44
 70
     1
102
RTVSPost2010Prop45
280
     0
102
RTVSPost2010PropOp45
 70
     1
102
RTVSPost2010Prop46
 90
       50
102
RTVSPost2010PropOp46
 70
     1
102
RTVSPost2010Prop47
 90
       50
102
RTVSPost2010PropOp47
 70
     1
102
RTVSPost2010Prop48
 90
       50
102
RTVSPost2010PropOp48
 70
     1
102
RTVSPost2010Prop49
280
     0
102
RTVSPost2010PropOp49
 70
     1
102
RTVSPost2010Prop50
 90
       50
102
RTVSPost2010PropOp50
 70
     1
102
RTVSPost2010Prop51ColorIndex
 90
      256
102
RTVSPost2010Prop51ColorRGB
 90
-16777216
102
RTVSPost2010PropOp51
 70
     0
102
RTVSPost2010Prop52
140
1.0
102
RTVSPost2010PropOp52
 70
     0
102
RTVSPost2010Prop53
 90
        2
102
RTVSPost2010PropOp53
 70
     1
102
RTVSPost2010Prop54
  1
strokes_ogs.tif
102
RTVSPost2010PropOp54
 70
     1
102
RTVSPost2010Prop55
280
     0
102
RTVSPost2010PropOp55
 70
     1
102
RTVSPost2010Prop56
140
1.0
102
RTVSPost2010PropOp56
 70
     1
102
RTVSPost2010Prop57
140
1.0
102
RTVSPost2010PropOp57
 70
     1
  0
XRECORD
  5
1B4
102
{ACAD_REACTORS
330
1B3
102
}
330
1B3
100
AcDbXrecord
280
     1
102
RTVSPropertyOp0
 70
     1
102
RTVSPropertyOp1
 70
     1
102
RTVSPropertyOp2
 70
     1
102
RTVSPropertyOp3
 70
     1
102
RTVSPropertyOp4
 70
     1
102
RTVSPropertyOp5
 70
     1
102
RTVSPropertyOp6
 70
     1
102
RTVSPropertyOp7
 70
     1
102
RTVSPropertyOp8
 70
     1
102
RTVSPropertyOp9
 70
     1
102
RTVSPropertyOp10
 70
     1
102
RTVSPropertyOp11
 70
     1
102
RTVSPropertyOp12
 70
     1
102
RTVSPropertyOp13
 70
     1
102
RTVSPropertyOp14
 70
     1
102
RTVSPropertyOp15
 70
     1
102
RTVSPropertyOp16
 70
     1
102
RTVSPropertyOp17
 70
     1
102
RTVSPropertyOp18
 70
     1
102
RTVSPropertyOp19
 70
     1
102
RTVSPropertyOp20
 70
     1
102
RTVSPropertyOp21
 70
     1
102
RTVSPropertyOp22
 70
     1
102
RTVSPropertyOp23
 70
     1
102
RTVSPropertyOp24
 70
     1
102
RTVSPropertyOp25
 70
     1
102
RTVSPropertyOp26
 70
     1
102
RTVSPropertyOp27
 70
     1
102
RTVSPropertyOp28
 70
     1
102
RTVSPropertyOp29
 70
     1
102
RTVSPropertyOp30
 70
     1
102
RTVSPropertyOp31
 70
     1
102
RTVSPropertyOp32
 70
     1
102
RTVSPropertyOp33
 70
     1
102
RTVSPropertyOp34
 70
     1
102
RTVSPropertyOp35
 70
     1
102
RTVSPropertyOp36
 70
     1
102
RTVSPropertyOp37
 70
     1
102
RTVSPropertyOp38
 70
     1
102
RTVSPropertyOp39
 70
     1
102
RTVSPropertyOp40
 70
     1
102
RTVSPropertyOp41
 70
     1
102
RTVSPropertyOp42
 70
     1
102
RTVSPropertyOp43
 70
     1
102
RTVSPropertyOp44
 70
     1
102
RTVSPropertyOp45
 70
     1
102
RTVSPropertyOp46
 70
     1
102
RTVSPropertyOp47
 70
     1
102
RTVSPropertyOp48
 70
     1
102
RTVSPropertyOp49
 70
     1
102
RTVSPropertyOp50
 70
     1
102
RTVSPropertyOp51
 70
     0
102
RTVSPropertyOp52
 70
     0
102
RTVSPropertyOp53
 70
     1
102
RTVSPropertyOp54
 70
     1
102
RTVSPropertyOp55
 70
     1
102
RTVSPropertyOp56
 70
     1
102
RTVSPropertyOp57
 70
     1
102
RTVSPost2010Prop28
280
     0
102
RTVSPost2010PropOp28
 70
     1
102
RTVSPost2010Prop29
280
     1
102
RTVSPost2010PropOp29
 70
     1
102
RTVSPost2010Prop30
280
     1
102
RTVSPost2010PropOp30
 70
     1
102
RTVSPost2010Prop31
280
     0
102
RTVSPost2010PropOp31
 70
     1
102
RTVSPost2010Prop32
280
     0
102
RTVSPost2010PropOp32
 70
     1
102
RTVSPost2010Prop33
280
     0
102
RTVSPost2010PropOp33
 70
     1
102
RTVSPost2010Prop34
280
     0
102
RTVSPost2010PropOp34
 70
     1
102
RTVSPost2010Prop35
280
     0
102
RTVSPost2010PropOp35
 70
     1
102
RTVSPost2010Prop36
280
     0
102
RTVSPost2010PropOp36
 70
     1
102
RTVSPost2010Prop37
 90
       50
102
RTVSPost2010PropOp37
 70
     1
102
RTVSPost2010Prop38
140
0.0
102
RTVSPost2010PropOp38
 70
     1
102
RTVSPost2010Prop39
140
1.0
102
RTVSPost2010PropOp39
 70
     1
102
RTVSPost2010Prop40
 90
        0
102
RTVSPost2010PropOp40
 70
     1
102
RTVSPost2010Prop41ColorIndex
 90
       18
102
RTVSPost2010Prop41ColorRGB
 90
        0
102
RTVSPost2010PropOp41
 70
     1
102
RTVSPost2010Prop42
 90
       50
102
RTVSPost2010PropOp42
 70
     1
102
RTVSPost2010Prop43
 90
        3
102
RTVSPost2010PropOp43
 70
     1
102
RTVSPost2010Prop44ColorIndex
 90
        5
102
RTVSPost2010Prop44ColorRGB
 90
      255
102
RTVSPost2010PropOp44
 70
     1
102
RTVSPost2010Prop45
280
     0
102
RTVSPost2010PropOp45
 70
     1
102
RTVSPost2010Prop46
 90
       50
102
RTVSPost2010PropOp46
 70
     1
102
RTVSPost2010Prop47
 90
       50
102
RTVSPost2010PropOp47
 70
     1
102
RTVSPost2010Prop48
 90
       50
102
RTVSPost2010PropOp48
 70
     1
102
RTVSPost2010Prop49
280
     0
102
RTVSPost2010PropOp49
 70
     1
102
RTVSPost2010Prop50
 90
       50
102
RTVSPost2010PropOp50
 70
     1
102
RTVSPost2010Prop51ColorIndex
 90
      256
102
RTVSPost2010Prop51ColorRGB
 90
-16777216
102
RTVSPost2010PropOp51
 70
     0
102
RTVSPost2010Prop52
140
1.0
102
RTVSPost2010PropOp52
 70
     0
102
RTVSPost2010Prop53
 90
        2
102
RTVSPost2010PropOp53
 70
     1
102
RTVSPost2010Prop54
  1
strokes_ogs.tif
102
RTVSPost2010PropOp54
 70
     1
102
RTVSPost2010Prop55
280
     0
102
RTVSPost2010PropOp55
 70
     1
102
RTVSPost2010Prop56
140
1.0
102
RTVSPost2010PropOp56
 70
     1
102
RTVSPost2010Prop57
140
1.0
102
RTVSPost2010PropOp57
 70
     1
  0
XRECORD
  5
1B6
102
{ACAD_REACTORS
330
1B5
102
}
330
1B5
100
AcDbXrecord
280
     1
102
RTVSPropertyOp0
 70
     1
102
RTVSPropertyOp1
 70
     1
102
RTVSPropertyOp2
 70
     1
102
RTVSPropertyOp3
 70
     1
102
RTVSPropertyOp4
 70
     1
102
RTVSPropertyOp5
 70
     1
102
RTVSPropertyOp6
 70
     1
102
RTVSPropertyOp7
 70
     1
102
RTVSPropertyOp8
 70
     1
102
RTVSPropertyOp9
 70
     1
102
RTVSPropertyOp10
 70
     1
102
RTVSPropertyOp11
 70
     1
102
RTVSPropertyOp12
 70
     1
102
RTVSPropertyOp13
 70
     1
102
RTVSPropertyOp14
 70
     1
102
RTVSPropertyOp15
 70
     1
102
RTVSPropertyOp16
 70
     1
102
RTVSPropertyOp17
 70
     1
102
RTVSPropertyOp18
 70
     1
102
RTVSPropertyOp19
 70
     1
102
RTVSPropertyOp20
 70
     1
102
RTVSPropertyOp21
 70
     1
102
RTVSPropertyOp22
 70
     1
102
RTVSPropertyOp23
 70
     1
102
RTVSPropertyOp24
 70
     1
102
RTVSPropertyOp25
 70
     1
102
RTVSPropertyOp26
 70
     1
102
RTVSPropertyOp27
 70
     1
102
RTVSPropertyOp28
 70
     1
102
RTVSPropertyOp29
 70
     1
102
RTVSPropertyOp30
 70
     1
102
RTVSPropertyOp31
 70
     1
102
RTVSPropertyOp32
 70
     1
102
RTVSPropertyOp33
 70
     1
102
RTVSPropertyOp34
 70
     1
102
RTVSPropertyOp35
 70
     1
102
RTVSPropertyOp36
 70
     1
102
RTVSPropertyOp37
 70
     1
102
RTVSPropertyOp38
 70
     1
102
RTVSPropertyOp39
 70
     1
102
RTVSPropertyOp40
 70
     1
102
RTVSPropertyOp41
 70
     1
102
RTVSPropertyOp42
 70
     1
102
RTVSPropertyOp43
 70
     1
102
RTVSPropertyOp44
 70
     1
102
RTVSPropertyOp45
 70
     1
102
RTVSPropertyOp46
 70
     1
102
RTVSPropertyOp47
 70
     1
102
RTVSPropertyOp48
 70
     1
102
RTVSPropertyOp49
 70
     1
102
RTVSPropertyOp50
 70
     1
102
RTVSPropertyOp51
 70
     0
102
RTVSPropertyOp52
 70
     0
102
RTVSPropertyOp53
 70
     1
102
RTVSPropertyOp54
 70
     1
102
RTVSPropertyOp55
 70
     1
102
RTVSPropertyOp56
 70
     1
102
RTVSPropertyOp57
 70
     1
102
RTVSPost2010Prop28
280
     0
102
RTVSPost2010PropOp28
 70
     1
102
RTVSPost2010Prop29
280
     1
102
RTVSPost2010PropOp29
 70
     1
102
RTVSPost2010Prop30
280
     1
102
RTVSPost2010PropOp30
 70
     1
102
RTVSPost2010Prop31
280
     0
102
RTVSPost2010PropOp31
 70
     1
102
RTVSPost2010Prop32
280
     0
102
RTVSPost2010PropOp32
 70
     1
102
RTVSPost2010Prop33
280
     0
102
RTVSPost2010PropOp33
 70
     1
102
RTVSPost2010Prop34
280
     0
102
RTVSPost2010PropOp34
 70
     1
102
RTVSPost2010Prop35
280
     0
102
RTVSPost2010PropOp35
 70
     1
102
RTVSPost2010Prop36
280
     0
102
RTVSPost2010PropOp36
 70
     1
102
RTVSPost2010Prop37
 90
       50
102
RTVSPost2010PropOp37
 70
     1
102
RTVSPost2010Prop38
140
0.0
102
RTVSPost2010PropOp38
 70
     1
102
RTVSPost2010Prop39
140
1.0
102
RTVSPost2010PropOp39
 70
     1
102
RTVSPost2010Prop40
 90
        0
102
RTVSPost2010PropOp40
 70
     1
102
RTVSPost2010Prop41ColorIndex
 90
       18
102
RTVSPost2010Prop41ColorRGB
 90
        0
102
RTVSPost2010PropOp41
 70
     1
102
RTVSPost2010Prop42
 90
       50
102
RTVSPost2010PropOp42
 70
     1
102
RTVSPost2010Prop43
 90
        3
102
RTVSPost2010PropOp43
 70
     1
102
RTVSPost2010Prop44ColorIndex
 90
        5
102
RTVSPost2010Prop44ColorRGB
 90
      255
102
RTVSPost2010PropOp44
 70
     1
102
RTVSPost2010Prop45
280
     0
102
RTVSPost2010PropOp45
 70
     1
102
RTVSPost2010Prop46
 90
       50
102
RTVSPost2010PropOp46
 70
     1
102
RTVSPost2010Prop47
 90
       50
102
RTVSPost2010PropOp47
 70
     1
102
RTVSPost2010Prop48
 90
       50
102
RTVSPost2010PropOp48
 70
     1
102
RTVSPost2010Prop49
280
     0
102
RTVSPost2010PropOp49
 70
     1
102
RTVSPost2010Prop50
 90
       50
102
RTVSPost2010PropOp50
 70
     1
102
RTVSPost2010Prop51ColorIndex
 90
      256
102
RTVSPost2010Prop51ColorRGB
 90
-16777216
102
RTVSPost2010PropOp51
 70
     0
102
RTVSPost2010Prop52
140
1.0
102
RTVSPost2010PropOp52
 70
     0
102
RTVSPost2010Prop53
 90
        2
102
RTVSPost2010PropOp53
 70
     1
102
RTVSPost2010Prop54
  1
strokes_ogs.tif
102
RTVSPost2010PropOp54
 70
     1
102
RTVSPost2010Prop55
280
     0
102
RTVSPost2010PropOp55
 70
     1
102
RTVSPost2010Prop56
140
1.0
102
RTVSPost2010PropOp56
 70
     1
102
RTVSPost2010Prop57
140
1.0
102
RTVSPost2010PropOp57
 70
     1
  0
XRECORD
  5
1B8
102
{ACAD_REACTORS
330
1B7
102
}
330
1B7
100
AcDbXrecord
280
     1
102
RTVSPropertyOp0
 70
     1
102
RTVSPropertyOp1
 70
     1
102
RTVSPropertyOp2
 70
     1
102
RTVSPropertyOp3
 70
     1
102
RTVSPropertyOp4
 70
     1
102
RTVSPropertyOp5
 70
     1
102
RTVSPropertyOp6
 70
     1
102
RTVSPropertyOp7
 70
     1
102
RTVSPropertyOp8
 70
     1
102
RTVSPropertyOp9
 70
     1
102
RTVSPropertyOp10
 70
     1
102
RTVSPropertyOp11
 70
     1
102
RTVSPropertyOp12
 70
     1
102
RTVSPropertyOp13
 70
     1
102
RTVSPropertyOp14
 70
     1
102
RTVSPropertyOp15
 70
     1
102
RTVSPropertyOp16
 70
     1
102
RTVSPropertyOp17
 70
     1
102
RTVSPropertyOp18
 70
     1
102
RTVSPropertyOp19
 70
     1
102
RTVSPropertyOp20
 70
     1
102
RTVSPropertyOp21
 70
     1
102
RTVSPropertyOp22
 70
     1
102
RTVSPropertyOp23
 70
     1
102
RTVSPropertyOp24
 70
     1
102
RTVSPropertyOp25
 70
     1
102
RTVSPropertyOp26
 70
     1
102
RTVSPropertyOp27
 70
     1
102
RTVSPropertyOp28
 70
     1
102
RTVSPropertyOp29
 70
     1
102
RTVSPropertyOp30
 70
     1
102
RTVSPropertyOp31
 70
     1
102
RTVSPropertyOp32
 70
     1
102
RTVSPropertyOp33
 70
     1
102
RTVSPropertyOp34
 70
     1
102
RTVSPropertyOp35
 70
     1
102
RTVSPropertyOp36
 70
     1
102
RTVSPropertyOp37
 70
     1
102
RTVSPropertyOp38
 70
     1
102
RTVSPropertyOp39
 70
     1
102
RTVSPropertyOp40
 70
     1
102
RTVSPropertyOp41
 70
     1
102
RTVSPropertyOp42
 70
     1
102
RTVSPropertyOp43
 70
     1
102
RTVSPropertyOp44
 70
     1
102
RTVSPropertyOp45
 70
     1
102
RTVSPropertyOp46
 70
     1
102
RTVSPropertyOp47
 70
     1
102
RTVSPropertyOp48
 70
     1
102
RTVSPropertyOp49
 70
     1
102
RTVSPropertyOp50
 70
     1
102
RTVSPropertyOp51
 70
     0
102
RTVSPropertyOp52
 70
     0
102
RTVSPropertyOp53
 70
     1
102
RTVSPropertyOp54
 70
     1
102
RTVSPropertyOp55
 70
     1
102
RTVSPropertyOp56
 70
     1
102
RTVSPropertyOp57
 70
     1
102
RTVSPost2010Prop28
280
     0
102
RTVSPost2010PropOp28
 70
     1
102
RTVSPost2010Prop29
280
     1
102
RTVSPost2010PropOp29
 70
     1
102
RTVSPost2010Prop30
280
     1
102
RTVSPost2010PropOp30
 70
     1
102
RTVSPost2010Prop31
280
     0
102
RTVSPost2010PropOp31
 70
     1
102
RTVSPost2010Prop32
280
     0
102
RTVSPost2010PropOp32
 70
     1
102
RTVSPost2010Prop33
280
     0
102
RTVSPost2010PropOp33
 70
     1
102
RTVSPost2010Prop34
280
     0
102
RTVSPost2010PropOp34
 70
     1
102
RTVSPost2010Prop35
280
     0
102
RTVSPost2010PropOp35
 70
     1
102
RTVSPost2010Prop36
280
     0
102
RTVSPost2010PropOp36
 70
     1
102
RTVSPost2010Prop37
 90
       50
102
RTVSPost2010PropOp37
 70
     1
102
RTVSPost2010Prop38
140
0.0
102
RTVSPost2010PropOp38
 70
     1
102
RTVSPost2010Prop39
140
1.0
102
RTVSPost2010PropOp39
 70
     1
102
RTVSPost2010Prop40
 90
        0
102
RTVSPost2010PropOp40
 70
     1
102
RTVSPost2010Prop41ColorIndex
 90
       18
102
RTVSPost2010Prop41ColorRGB
 90
        0
102
RTVSPost2010PropOp41
 70
     1
102
RTVSPost2010Prop42
 90
       50
102
RTVSPost2010PropOp42
 70
     1
102
RTVSPost2010Prop43
 90
        3
102
RTVSPost2010PropOp43
 70
     1
102
RTVSPost2010Prop44ColorIndex
 90
        5
102
RTVSPost2010Prop44ColorRGB
 90
      255
102
RTVSPost2010PropOp44
 70
     1
102
RTVSPost2010Prop45
280
     0
102
RTVSPost2010PropOp45
 70
     1
102
RTVSPost2010Prop46
 90
       50
102
RTVSPost2010PropOp46
 70
     1
102
RTVSPost2010Prop47
 90
       50
102
RTVSPost2010PropOp47
 70
     1
102
RTVSPost2010Prop48
 90
       50
102
RTVSPost2010PropOp48
 70
     1
102
RTVSPost2010Prop49
280
     0
102
RTVSPost2010PropOp49
 70
     1
102
RTVSPost2010Prop50
 90
       50
102
RTVSPost2010PropOp50
 70
     1
102
RTVSPost2010Prop51ColorIndex
 90
      256
102
RTVSPost2010Prop51ColorRGB
 90
-16777216
102
RTVSPost2010PropOp51
 70
     0
102
RTVSPost2010Prop52
140
1.0
102
RTVSPost2010PropOp52
 70
     0
102
RTVSPost2010Prop53
 90
        2
102
RTVSPost2010PropOp53
 70
     1
102
RTVSPost2010Prop54
  1
strokes_ogs.tif
102
RTVSPost2010PropOp54
 70
     1
102
RTVSPost2010Prop55
280
     0
102
RTVSPost2010PropOp55
 70
     1
102
RTVSPost2010Prop56
140
1.0
102
RTVSPost2010PropOp56
 70
     1
102
RTVSPost2010Prop57
140
1.0
102
RTVSPost2010PropOp57
 70
     1
  0
XRECORD
  5
1BE
102
{ACAD_REACTORS
330
1BD
102
}
330
1BD
100
AcDbXrecord
280
     1
102
RTVSPropertyOp0
 70
     1
102
RTVSPropertyOp1
 70
     1
102
RTVSPropertyOp2
 70
     1
102
RTVSPropertyOp3
 70
     1
102
RTVSPropertyOp4
 70
     1
102
RTVSPropertyOp5
 70
     1
102
RTVSPropertyOp6
 70
     1
102
RTVSPropertyOp7
 70
     1
102
RTVSPropertyOp8
 70
     1
102
RTVSPropertyOp9
 70
     1
102
RTVSPropertyOp10
 70
     1
102
RTVSPropertyOp11
 70
     1
102
RTVSPropertyOp12
 70
     1
102
RTVSPropertyOp13
 70
     1
102
RTVSPropertyOp14
 70
     1
102
RTVSPropertyOp15
 70
     1
102
RTVSPropertyOp16
 70
     1
102
RTVSPropertyOp17
 70
     1
102
RTVSPropertyOp18
 70
     1
102
RTVSPropertyOp19
 70
     1
102
RTVSPropertyOp20
 70
     1
102
RTVSPropertyOp21
 70
     1
102
RTVSPropertyOp22
 70
     1
102
RTVSPropertyOp23
 70
     1
102
RTVSPropertyOp24
 70
     1
102
RTVSPropertyOp25
 70
     1
102
RTVSPropertyOp26
 70
     1
102
RTVSPropertyOp27
 70
     1
102
RTVSPropertyOp28
 70
     1
102
RTVSPropertyOp29
 70
     1
102
RTVSPropertyOp30
 70
     1
102
RTVSPropertyOp31
 70
     1
102
RTVSPropertyOp32
 70
     1
102
RTVSPropertyOp33
 70
     1
102
RTVSPropertyOp34
 70
     1
102
RTVSPropertyOp35
 70
     1
102
RTVSPropertyOp36
 70
     1
102
RTVSPropertyOp37
 70
     1
102
RTVSPropertyOp38
 70
     1
102
RTVSPropertyOp39
 70
     1
102
RTVSPropertyOp40
 70
     1
102
RTVSPropertyOp41
 70
     1
102
RTVSPropertyOp42
 70
     1
102
RTVSPropertyOp43
 70
     1
102
RTVSPropertyOp44
 70
     1
102
RTVSPropertyOp45
 70
     1
102
RTVSPropertyOp46
 70
     1
102
RTVSPropertyOp47
 70
     1
102
RTVSPropertyOp48
 70
     1
102
RTVSPropertyOp49
 70
     1
102
RTVSPropertyOp50
 70
     1
102
RTVSPropertyOp51
 70
     0
102
RTVSPropertyOp52
 70
     0
102
RTVSPropertyOp53
 70
     1
102
RTVSPropertyOp54
 70
     1
102
RTVSPropertyOp55
 70
     1
102
RTVSPropertyOp56
 70
     1
102
RTVSPropertyOp57
 70
     1
102
RTVSPost2010Prop28
280
     0
102
RTVSPost2010PropOp28
 70
     1
102
RTVSPost2010Prop29
280
     1
102
RTVSPost2010PropOp29
 70
     1
102
RTVSPost2010Prop30
280
     1
102
RTVSPost2010PropOp30
 70
     1
102
RTVSPost2010Prop31
280
     0
102
RTVSPost2010PropOp31
 70
     1
102
RTVSPost2010Prop32
280
     0
102
RTVSPost2010PropOp32
 70
     1
102
RTVSPost2010Prop33
280
     0
102
RTVSPost2010PropOp33
 70
     1
102
RTVSPost2010Prop34
280
     0
102
RTVSPost2010PropOp34
 70
     1
102
RTVSPost2010Prop35
280
     0
102
RTVSPost2010PropOp35
 70
     1
102
RTVSPost2010Prop36
280
     0
102
RTVSPost2010PropOp36
 70
     1
102
RTVSPost2010Prop37
 90
       50
102
RTVSPost2010PropOp37
 70
     1
102
RTVSPost2010Prop38
140
0.0
102
RTVSPost2010PropOp38
 70
     1
102
RTVSPost2010Prop39
140
1.0
102
RTVSPost2010PropOp39
 70
     1
102
RTVSPost2010Prop40
 90
        0
102
RTVSPost2010PropOp40
 70
     1
102
RTVSPost2010Prop41ColorIndex
 90
       18
102
RTVSPost2010Prop41ColorRGB
 90
        0
102
RTVSPost2010PropOp41
 70
     1
102
RTVSPost2010Prop42
 90
       50
102
RTVSPost2010PropOp42
 70
     1
102
RTVSPost2010Prop43
 90
        3
102
RTVSPost2010PropOp43
 70
     1
102
RTVSPost2010Prop44ColorIndex
 90
        5
102
RTVSPost2010Prop44ColorRGB
 90
      255
102
RTVSPost2010PropOp44
 70
     1
102
RTVSPost2010Prop45
280
     0
102
RTVSPost2010PropOp45
 70
     1
102
RTVSPost2010Prop46
 90
       50
102
RTVSPost2010PropOp46
 70
     1
102
RTVSPost2010Prop47
 90
       50
102
RTVSPost2010PropOp47
 70
     1
102
RTVSPost2010Prop48
 90
       50
102
RTVSPost2010PropOp48
 70
     1
102
RTVSPost2010Prop49
280
     0
102
RTVSPost2010PropOp49
 70
     1
102
RTVSPost2010Prop50
 90
       50
102
RTVSPost2010PropOp50
 70
     1
102
RTVSPost2010Prop51ColorIndex
 90
      256
102
RTVSPost2010Prop51ColorRGB
 90
-16777216
102
RTVSPost2010PropOp51
 70
     0
102
RTVSPost2010Prop52
140
1.0
102
RTVSPost2010PropOp52
 70
     0
102
RTVSPost2010Prop53
 90
        2
102
RTVSPost2010PropOp53
 70
     1
102
RTVSPost2010Prop54
  1
strokes_ogs.tif
102
RTVSPost2010PropOp54
 70
     1
102
RTVSPost2010Prop55
280
     0
102
RTVSPost2010PropOp55
 70
     1
102
RTVSPost2010Prop56
140
1.0
102
RTVSPost2010PropOp56
 70
     1
102
RTVSPost2010Prop57
140
1.0
102
RTVSPost2010PropOp57
 70
     1
  0
XRECORD
  5
1D2
102
{ACAD_REACTORS
330
1D1
102
}
330
1D1
100
AcDbXrecord
280
     1
102
RTVSPropertyOp0
 70
     0
102
RTVSPropertyOp1
 70
     0
102
RTVSPropertyOp2
 70
     0
102
RTVSPropertyOp3
 70
     0
102
RTVSPropertyOp4
 70
     0
102
RTVSPropertyOp5
 70
     0
102
RTVSPropertyOp6
 70
     0
102
RTVSPropertyOp7
 70
     0
102
RTVSPropertyOp8
 70
     0
102
RTVSPropertyOp9
 70
     0
102
RTVSPropertyOp10
 70
     0
102
RTVSPropertyOp11
 70
     0
102
RTVSPropertyOp12
 70
     0
102
RTVSPropertyOp13
 70
     0
102
RTVSPropertyOp14
 70
     2
102
RTVSPropertyOp15
 70
     0
102
RTVSPropertyOp16
 70
     0
102
RTVSPropertyOp17
 70
     0
102
RTVSPropertyOp18
 70
     0
102
RTVSPropertyOp19
 70
     0
102
RTVSPropertyOp20
 70
     0
102
RTVSPropertyOp21
 70
     0
102
RTVSPropertyOp22
 70
     0
102
RTVSPropertyOp23
 70
     0
102
RTVSPropertyOp24
 70
     0
102
RTVSPropertyOp25
 70
     0
102
RTVSPropertyOp26
 70
     0
102
RTVSPropertyOp27
 70
     0
102
RTVSPropertyOp28
 70
     0
102
RTVSPropertyOp29
 70
     0
102
RTVSPropertyOp30
 70
     0
102
RTVSPropertyOp31
 70
     0
102
RTVSPropertyOp32
 70
     0
102
RTVSPropertyOp33
 70
     0
102
RTVSPropertyOp34
 70
     0
102
RTVSPropertyOp35
 70
     0
102
RTVSPropertyOp36
 70
     0
102
RTVSPropertyOp37
 70
     0
102
RTVSPropertyOp38
 70
     0
102
RTVSPropertyOp39
 70
     0
102
RTVSPropertyOp40
 70
     0
102
RTVSPropertyOp41
 70
     0
102
RTVSPropertyOp42
 70
     0
102
RTVSPropertyOp43
 70
     0
102
RTVSPropertyOp44
 70
     0
102
RTVSPropertyOp45
 70
     0
102
RTVSPropertyOp46
 70
     0
102
RTVSPropertyOp47
 70
     0
102
RTVSPropertyOp48
 70
     0
102
RTVSPropertyOp49
 70
     0
102
RTVSPropertyOp50
 70
     0
102
RTVSPropertyOp51
 70
     0
102
RTVSPropertyOp52
 70
     0
102
RTVSPropertyOp53
 70
     0
102
RTVSPropertyOp54
 70
     0
102
RTVSPropertyOp55
 70
     0
102
RTVSPropertyOp56
 70
     0
102
RTVSPropertyOp57
 70
     0
102
RTVSPost2010Prop28
280
     0
102
RTVSPost2010PropOp28
 70
     0
102
RTVSPost2010Prop29
280
     1
102
RTVSPost2010PropOp29
 70
     0
102
RTVSPost2010Prop30
280
     1
102
RTVSPost2010PropOp30
 70
     0
102
RTVSPost2010Prop31
280
     0
102
RTVSPost2010PropOp31
 70
     0
102
RTVSPost2010Prop32
280
     0
102
RTVSPost2010PropOp32
 70
     0
102
RTVSPost2010Prop33
280
     0
102
RTVSPost2010PropOp33
 70
     0
102
RTVSPost2010Prop34
280
     0
102
RTVSPost2010PropOp34
 70
     0
102
RTVSPost2010Prop35
280
     0
102
RTVSPost2010PropOp35
 70
     0
102
RTVSPost2010Prop36
280
     0
102
RTVSPost2010PropOp36
 70
     0
102
RTVSPost2010Prop37
 90
       50
102
RTVSPost2010PropOp37
 70
     0
102
RTVSPost2010Prop38
140
0.0
102
RTVSPost2010PropOp38
 70
     0
102
RTVSPost2010Prop39
140
1.0
102
RTVSPost2010PropOp39
 70
     0
102
RTVSPost2010Prop40
 90
        0
102
RTVSPost2010PropOp40
 70
     0
102
RTVSPost2010Prop41ColorIndex
 90
       18
102
RTVSPost2010Prop41ColorRGB
 90
        0
102
RTVSPost2010PropOp41
 70
     0
102
RTVSPost2010Prop42
 90
       50
102
RTVSPost2010PropOp42
 70
     0
102
RTVSPost2010Prop43
 90
        3
102
RTVSPost2010PropOp43
 70
     0
102
RTVSPost2010Prop44ColorIndex
 90
        5
102
RTVSPost2010Prop44ColorRGB
 90
      255
102
RTVSPost2010PropOp44
 70
     0
102
RTVSPost2010Prop45
280
     0
102
RTVSPost2010PropOp45
 70
     0
102
RTVSPost2010Prop46
 90
       50
102
RTVSPost2010PropOp46
 70
     0
102
RTVSPost2010Prop47
 90
       50
102
RTVSPost2010PropOp47
 70
     0
102
RTVSPost2010Prop48
 90
       50
102
RTVSPost2010PropOp48
 70
     0
102
RTVSPost2010Prop49
280
     0
102
RTVSPost2010PropOp49
 70
     0
102
RTVSPost2010Prop50
 90
       50
102
RTVSPost2010PropOp50
 70
     0
102
RTVSPost2010Prop51ColorIndex
 90
      256
102
RTVSPost2010Prop51ColorRGB
 90
-16777216
102
RTVSPost2010PropOp51
 70
     0
102
RTVSPost2010Prop52
140
1.0
102
RTVSPost2010PropOp52
 70
     0
102
RTVSPost2010Prop53
 90
        2
102
RTVSPost2010PropOp53
 70
     0
102
RTVSPost2010Prop54
  1
strokes_ogs.tif
102
RTVSPost2010PropOp54
 70
     0
102
RTVSPost2010Prop55
280
     0
102
RTVSPost2010PropOp55
 70
     0
102
RTVSPost2010Prop56
140
1.0
102
RTVSPost2010PropOp56
 70
     0
102
RTVSPost2010Prop57
140
1.0
102
RTVSPost2010PropOp57
 70
     0
  0
XRECORD
  5
1CC
102
{ACAD_REACTORS
330
1CB
102
}
330
1CB
100
AcDbXrecord
280
     1
102
RTVSPropertyOp0
 70
     1
102
RTVSPropertyOp1
 70
     1
102
RTVSPropertyOp2
 70
     1
102
RTVSPropertyOp3
 70
     1
102
RTVSPropertyOp4
 70
     1
102
RTVSPropertyOp5
 70
     1
102
RTVSPropertyOp6
 70
     1
102
RTVSPropertyOp7
 70
     1
102
RTVSPropertyOp8
 70
     1
102
RTVSPropertyOp9
 70
     1
102
RTVSPropertyOp10
 70
     1
102
RTVSPropertyOp11
 70
     1
102
RTVSPropertyOp12
 70
     1
102
RTVSPropertyOp13
 70
     1
102
RTVSPropertyOp14
 70
     1
102
RTVSPropertyOp15
 70
     1
102
RTVSPropertyOp16
 70
     1
102
RTVSPropertyOp17
 70
     1
102
RTVSPropertyOp18
 70
     1
102
RTVSPropertyOp19
 70
     1
102
RTVSPropertyOp20
 70
     1
102
RTVSPropertyOp21
 70
     1
102
RTVSPropertyOp22
 70
     1
102
RTVSPropertyOp23
 70
     1
102
RTVSPropertyOp24
 70
     1
102
RTVSPropertyOp25
 70
     1
102
RTVSPropertyOp26
 70
     1
102
RTVSPropertyOp27
 70
     1
102
RTVSPropertyOp28
 70
     1
102
RTVSPropertyOp29
 70
     1
102
RTVSPropertyOp30
 70
     1
102
RTVSPropertyOp31
 70
     1
102
RTVSPropertyOp32
 70
     1
102
RTVSPropertyOp33
 70
     1
102
RTVSPropertyOp34
 70
     1
102
RTVSPropertyOp35
 70
     1
102
RTVSPropertyOp36
 70
     1
102
RTVSPropertyOp37
 70
     1
102
RTVSPropertyOp38
 70
     1
102
RTVSPropertyOp39
 70
     1
102
RTVSPropertyOp40
 70
     1
102
RTVSPropertyOp41
 70
     1
102
RTVSPropertyOp42
 70
     1
102
RTVSPropertyOp43
 70
     1
102
RTVSPropertyOp44
 70
     1
102
RTVSPropertyOp45
 70
     1
102
RTVSPropertyOp46
 70
     1
102
RTVSPropertyOp47
 70
     1
102
RTVSPropertyOp48
 70
     1
102
RTVSPropertyOp49
 70
     1
102
RTVSPropertyOp50
 70
     1
102
RTVSPropertyOp51
 70
     0
102
RTVSPropertyOp52
 70
     0
102
RTVSPropertyOp53
 70
     1
102
RTVSPropertyOp54
 70
     1
102
RTVSPropertyOp55
 70
     1
102
RTVSPropertyOp56
 70
     1
102
RTVSPropertyOp57
 70
     1
102
RTVSPost2010Prop28
280
     0
102
RTVSPost2010PropOp28
 70
     1
102
RTVSPost2010Prop29
280
     1
102
RTVSPost2010PropOp29
 70
     1
102
RTVSPost2010Prop30
280
     1
102
RTVSPost2010PropOp30
 70
     1
102
RTVSPost2010Prop31
280
     0
102
RTVSPost2010PropOp31
 70
     1
102
RTVSPost2010Prop32
280
     0
102
RTVSPost2010PropOp32
 70
     1
102
RTVSPost2010Prop33
280
     0
102
RTVSPost2010PropOp33
 70
     1
102
RTVSPost2010Prop34
280
     0
102
RTVSPost2010PropOp34
 70
     1
102
RTVSPost2010Prop35
280
     0
102
RTVSPost2010PropOp35
 70
     1
102
RTVSPost2010Prop36
280
     0
102
RTVSPost2010PropOp36
 70
     1
102
RTVSPost2010Prop37
 90
       50
102
RTVSPost2010PropOp37
 70
     1
102
RTVSPost2010Prop38
140
0.0
102
RTVSPost2010PropOp38
 70
     1
102
RTVSPost2010Prop39
140
1.0
102
RTVSPost2010PropOp39
 70
     1
102
RTVSPost2010Prop40
 90
        0
102
RTVSPost2010PropOp40
 70
     1
102
RTVSPost2010Prop41ColorIndex
 90
       18
102
RTVSPost2010Prop41ColorRGB
 90
        0
102
RTVSPost2010PropOp41
 70
     1
102
RTVSPost2010Prop42
 90
       50
102
RTVSPost2010PropOp42
 70
     1
102
RTVSPost2010Prop43
 90
        3
102
RTVSPost2010PropOp43
 70
     1
102
RTVSPost2010Prop44ColorIndex
 90
        5
102
RTVSPost2010Prop44ColorRGB
 90
      255
102
RTVSPost2010PropOp44
 70
     1
102
RTVSPost2010Prop45
280
     0
102
RTVSPost2010PropOp45
 70
     1
102
RTVSPost2010Prop46
 90
       50
102
RTVSPost2010PropOp46
 70
     1
102
RTVSPost2010Prop47
 90
       50
102
RTVSPost2010PropOp47
 70
     1
102
RTVSPost2010Prop48
 90
       50
102
RTVSPost2010PropOp48
 70
     1
102
RTVSPost2010Prop49
280
     0
102
RTVSPost2010PropOp49
 70
     1
102
RTVSPost2010Prop50
 90
       50
102
RTVSPost2010PropOp50
 70
     1
102
RTVSPost2010Prop51ColorIndex
 90
      256
102
RTVSPost2010Prop51ColorRGB
 90
-16777216
102
RTVSPost2010PropOp51
 70
     0
102
RTVSPost2010Prop52
140
1.0
102
RTVSPost2010PropOp52
 70
     0
102
RTVSPost2010Prop53
 90
        2
102
RTVSPost2010PropOp53
 70
     1
102
RTVSPost2010Prop54
  1
strokes_ogs.tif
102
RTVSPost2010PropOp54
 70
     1
102
RTVSPost2010Prop55
280
     0
102
RTVSPost2010PropOp55
 70
     1
102
RTVSPost2010Prop56
140
1.0
102
RTVSPost2010PropOp56
 70
     1
102
RTVSPost2010Prop57
140
1.0
102
RTVSPost2010PropOp57
 70
     1
  0
XRECORD
  5
1D4
102
{ACAD_REACTORS
330
1D3
102
}
330
1D3
100
AcDbXrecord
280
     1
102
RTVSPropertyOp0
 70
     0
102
RTVSPropertyOp1
 70
     0
102
RTVSPropertyOp2
 70
     0
102
RTVSPropertyOp3
 70
     0
102
RTVSPropertyOp4
 70
     0
102
RTVSPropertyOp5
 70
     0
102
RTVSPropertyOp6
 70
     0
102
RTVSPropertyOp7
 70
     0
102
RTVSPropertyOp8
 70
     0
102
RTVSPropertyOp9
 70
     0
102
RTVSPropertyOp10
 70
     0
102
RTVSPropertyOp11
 70
     0
102
RTVSPropertyOp12
 70
     0
102
RTVSPropertyOp13
 70
     0
102
RTVSPropertyOp14
 70
     2
102
RTVSPropertyOp15
 70
     0
102
RTVSPropertyOp16
 70
     0
102
RTVSPropertyOp17
 70
     0
102
RTVSPropertyOp18
 70
     0
102
RTVSPropertyOp19
 70
     0
102
RTVSPropertyOp20
 70
     0
102
RTVSPropertyOp21
 70
     0
102
RTVSPropertyOp22
 70
     0
102
RTVSPropertyOp23
 70
     0
102
RTVSPropertyOp24
 70
     0
102
RTVSPropertyOp25
 70
     0
102
RTVSPropertyOp26
 70
     0
102
RTVSPropertyOp27
 70
     0
102
RTVSPropertyOp28
 70
     0
102
RTVSPropertyOp29
 70
     0
102
RTVSPropertyOp30
 70
     0
102
RTVSPropertyOp31
 70
     0
102
RTVSPropertyOp32
 70
     0
102
RTVSPropertyOp33
 70
     0
102
RTVSPropertyOp34
 70
     0
102
RTVSPropertyOp35
 70
     0
102
RTVSPropertyOp36
 70
     0
102
RTVSPropertyOp37
 70
     0
102
RTVSPropertyOp38
 70
     0
102
RTVSPropertyOp39
 70
     0
102
RTVSPropertyOp40
 70
     0
102
RTVSPropertyOp41
 70
     0
102
RTVSPropertyOp42
 70
     0
102
RTVSPropertyOp43
 70
     0
102
RTVSPropertyOp44
 70
     0
102
RTVSPropertyOp45
 70
     0
102
RTVSPropertyOp46
 70
     0
102
RTVSPropertyOp47
 70
     0
102
RTVSPropertyOp48
 70
     0
102
RTVSPropertyOp49
 70
     0
102
RTVSPropertyOp50
 70
     0
102
RTVSPropertyOp51
 70
     0
102
RTVSPropertyOp52
 70
     0
102
RTVSPropertyOp53
 70
     0
102
RTVSPropertyOp54
 70
     0
102
RTVSPropertyOp55
 70
     0
102
RTVSPropertyOp56
 70
     0
102
RTVSPropertyOp57
 70
     0
102
RTVSPost2010Prop28
280
     0
102
RTVSPost2010PropOp28
 70
     0
102
RTVSPost2010Prop29
280
     1
102
RTVSPost2010PropOp29
 70
     0
102
RTVSPost2010Prop30
280
     1
102
RTVSPost2010PropOp30
 70
     0
102
RTVSPost2010Prop31
280
     0
102
RTVSPost2010PropOp31
 70
     0
102
RTVSPost2010Prop32
280
     0
102
RTVSPost2010PropOp32
 70
     0
102
RTVSPost2010Prop33
280
     0
102
RTVSPost2010PropOp33
 70
     0
102
RTVSPost2010Prop34
280
     0
102
RTVSPost2010PropOp34
 70
     0
102
RTVSPost2010Prop35
280
     0
102
RTVSPost2010PropOp35
 70
     0
102
RTVSPost2010Prop36
280
     0
102
RTVSPost2010PropOp36
 70
     0
102
RTVSPost2010Prop37
 90
       50
102
RTVSPost2010PropOp37
 70
     0
102
RTVSPost2010Prop38
140
0.0
102
RTVSPost2010PropOp38
 70
     0
102
RTVSPost2010Prop39
140
1.0
102
RTVSPost2010PropOp39
 70
     0
102
RTVSPost2010Prop40
 90
        0
102
RTVSPost2010PropOp40
 70
     0
102
RTVSPost2010Prop41ColorIndex
 90
       18
102
RTVSPost2010Prop41ColorRGB
 90
        0
102
RTVSPost2010PropOp41
 70
     0
102
RTVSPost2010Prop42
 90
       50
102
RTVSPost2010PropOp42
 70
     0
102
RTVSPost2010Prop43
 90
        3
102
RTVSPost2010PropOp43
 70
     0
102
RTVSPost2010Prop44ColorIndex
 90
        5
102
RTVSPost2010Prop44ColorRGB
 90
      255
102
RTVSPost2010PropOp44
 70
     0
102
RTVSPost2010Prop45
280
     0
102
RTVSPost2010PropOp45
 70
     0
102
RTVSPost2010Prop46
 90
       50
102
RTVSPost2010PropOp46
 70
     0
102
RTVSPost2010Prop47
 90
       50
102
RTVSPost2010PropOp47
 70
     0
102
RTVSPost2010Prop48
 90
       50
102
RTVSPost2010PropOp48
 70
     0
102
RTVSPost2010Prop49
280
     0
102
RTVSPost2010PropOp49
 70
     0
102
RTVSPost2010Prop50
 90
       50
102
RTVSPost2010PropOp50
 70
     0
102
RTVSPost2010Prop51ColorIndex
 90
      256
102
RTVSPost2010Prop51ColorRGB
 90
-16777216
102
RTVSPost2010PropOp51
 70
     0
102
RTVSPost2010Prop52
140
1.0
102
RTVSPost2010PropOp52
 70
     0
102
RTVSPost2010Prop53
 90
        2
102
RTVSPost2010PropOp53
 70
     0
102
RTVSPost2010Prop54
  1
strokes_ogs.tif
102
RTVSPost2010PropOp54
 70
     0
102
RTVSPost2010Prop55
280
     0
102
RTVSPost2010PropOp55
 70
     0
102
RTVSPost2010Prop56
140
1.0
102
RTVSPost2010PropOp56
 70
     0
102
RTVSPost2010Prop57
140
1.0
102
RTVSPost2010PropOp57
 70
     0
  0
XRECORD
  5
1C2
102
{ACAD_REACTORS
330
1C1
102
}
330
1C1
100
AcDbXrecord
280
     1
102
RTVSPropertyOp0
 70
     1
102
RTVSPropertyOp1
 70
     1
102
RTVSPropertyOp2
 70
     1
102
RTVSPropertyOp3
 70
     1
102
RTVSPropertyOp4
 70
     1
102
RTVSPropertyOp5
 70
     1
102
RTVSPropertyOp6
 70
     1
102
RTVSPropertyOp7
 70
     1
102
RTVSPropertyOp8
 70
     1
102
RTVSPropertyOp9
 70
     1
102
RTVSPropertyOp10
 70
     1
102
RTVSPropertyOp11
 70
     1
102
RTVSPropertyOp12
 70
     1
102
RTVSPropertyOp13
 70
     1
102
RTVSPropertyOp14
 70
     1
102
RTVSPropertyOp15
 70
     1
102
RTVSPropertyOp16
 70
     1
102
RTVSPropertyOp17
 70
     1
102
RTVSPropertyOp18
 70
     1
102
RTVSPropertyOp19
 70
     1
102
RTVSPropertyOp20
 70
     1
102
RTVSPropertyOp21
 70
     1
102
RTVSPropertyOp22
 70
     1
102
RTVSPropertyOp23
 70
     1
102
RTVSPropertyOp24
 70
     1
102
RTVSPropertyOp25
 70
     1
102
RTVSPropertyOp26
 70
     1
102
RTVSPropertyOp27
 70
     1
102
RTVSPropertyOp28
 70
     1
102
RTVSPropertyOp29
 70
     1
102
RTVSPropertyOp30
 70
     1
102
RTVSPropertyOp31
 70
     1
102
RTVSPropertyOp32
 70
     1
102
RTVSPropertyOp33
 70
     1
102
RTVSPropertyOp34
 70
     1
102
RTVSPropertyOp35
 70
     1
102
RTVSPropertyOp36
 70
     1
102
RTVSPropertyOp37
 70
     1
102
RTVSPropertyOp38
 70
     1
102
RTVSPropertyOp39
 70
     1
102
RTVSPropertyOp40
 70
     1
102
RTVSPropertyOp41
 70
     1
102
RTVSPropertyOp42
 70
     1
102
RTVSPropertyOp43
 70
     1
102
RTVSPropertyOp44
 70
     1
102
RTVSPropertyOp45
 70
     1
102
RTVSPropertyOp46
 70
     1
102
RTVSPropertyOp47
 70
     1
102
RTVSPropertyOp48
 70
     1
102
RTVSPropertyOp49
 70
     1
102
RTVSPropertyOp50
 70
     1
102
RTVSPropertyOp51
 70
     0
102
RTVSPropertyOp52
 70
     0
102
RTVSPropertyOp53
 70
     1
102
RTVSPropertyOp54
 70
     1
102
RTVSPropertyOp55
 70
     1
102
RTVSPropertyOp56
 70
     1
102
RTVSPropertyOp57
 70
     1
102
RTVSPost2010Prop28
280
     0
102
RTVSPost2010PropOp28
 70
     1
102
RTVSPost2010Prop29
280
     1
102
RTVSPost2010PropOp29
 70
     1
102
RTVSPost2010Prop30
280
     1
102
RTVSPost2010PropOp30
 70
     1
102
RTVSPost2010Prop31
280
     0
102
RTVSPost2010PropOp31
 70
     1
102
RTVSPost2010Prop32
280
     0
102
RTVSPost2010PropOp32
 70
     1
102
RTVSPost2010Prop33
280
     0
102
RTVSPost2010PropOp33
 70
     1
102
RTVSPost2010Prop34
280
     0
102
RTVSPost2010PropOp34
 70
     1
102
RTVSPost2010Prop35
280
     0
102
RTVSPost2010PropOp35
 70
     1
102
RTVSPost2010Prop36
280
     0
102
RTVSPost2010PropOp36
 70
     1
102
RTVSPost2010Prop37
 90
       50
102
RTVSPost2010PropOp37
 70
     1
102
RTVSPost2010Prop38
140
0.0
102
RTVSPost2010PropOp38
 70
     1
102
RTVSPost2010Prop39
140
1.0
102
RTVSPost2010PropOp39
 70
     1
102
RTVSPost2010Prop40
 90
        0
102
RTVSPost2010PropOp40
 70
     1
102
RTVSPost2010Prop41ColorIndex
 90
       18
102
RTVSPost2010Prop41ColorRGB
 90
        0
102
RTVSPost2010PropOp41
 70
     1
102
RTVSPost2010Prop42
 90
       50
102
RTVSPost2010PropOp42
 70
     1
102
RTVSPost2010Prop43
 90
        3
102
RTVSPost2010PropOp43
 70
     1
102
RTVSPost2010Prop44ColorIndex
 90
        5
102
RTVSPost2010Prop44ColorRGB
 90
      255
102
RTVSPost2010PropOp44
 70
     1
102
RTVSPost2010Prop45
280
     0
102
RTVSPost2010PropOp45
 70
     1
102
RTVSPost2010Prop46
 90
       50
102
RTVSPost2010PropOp46
 70
     1
102
RTVSPost2010Prop47
 90
       50
102
RTVSPost2010PropOp47
 70
     1
102
RTVSPost2010Prop48
 90
       50
102
RTVSPost2010PropOp48
 70
     1
102
RTVSPost2010Prop49
280
     0
102
RTVSPost2010PropOp49
 70
     1
102
RTVSPost2010Prop50
 90
       50
102
RTVSPost2010PropOp50
 70
     1
102
RTVSPost2010Prop51ColorIndex
 90
      256
102
RTVSPost2010Prop51ColorRGB
 90
-16777216
102
RTVSPost2010PropOp51
 70
     0
102
RTVSPost2010Prop52
140
1.0
102
RTVSPost2010PropOp52
 70
     0
102
RTVSPost2010Prop53
 90
        2
102
RTVSPost2010PropOp53
 70
     1
102
RTVSPost2010Prop54
  1
strokes_ogs.tif
102
RTVSPost2010PropOp54
 70
     1
102
RTVSPost2010Prop55
280
     0
102
RTVSPost2010PropOp55
 70
     1
102
RTVSPost2010Prop56
140
1.0
102
RTVSPost2010PropOp56
 70
     1
102
RTVSPost2010Prop57
140
1.0
102
RTVSPost2010PropOp57
 70
     1
  0
XRECORD
  5
1E0
102
{ACAD_REACTORS
330
1DF
102
}
330
1DF
100
AcDbXrecord
280
     1
102
RTVSPropertyOp0
 70
     1
102
RTVSPropertyOp1
 70
     1
102
RTVSPropertyOp2
 70
     1
102
RTVSPropertyOp3
 70
     1
102
RTVSPropertyOp4
 70
     1
102
RTVSPropertyOp5
 70
     1
102
RTVSPropertyOp6
 70
     1
102
RTVSPropertyOp7
 70
     1
102
RTVSPropertyOp8
 70
     1
102
RTVSPropertyOp9
 70
     1
102
RTVSPropertyOp10
 70
     1
102
RTVSPropertyOp11
 70
     1
102
RTVSPropertyOp12
 70
     1
102
RTVSPropertyOp13
 70
     1
102
RTVSPropertyOp14
 70
     1
102
RTVSPropertyOp15
 70
     1
102
RTVSPropertyOp16
 70
     1
102
RTVSPropertyOp17
 70
     1
102
RTVSPropertyOp18
 70
     1
102
RTVSPropertyOp19
 70
     1
102
RTVSPropertyOp20
 70
     1
102
RTVSPropertyOp21
 70
     1
102
RTVSPropertyOp22
 70
     1
102
RTVSPropertyOp23
 70
     1
102
RTVSPropertyOp24
 70
     1
102
RTVSPropertyOp25
 70
     1
102
RTVSPropertyOp26
 70
     1
102
RTVSPropertyOp27
 70
     1
102
RTVSPropertyOp28
 70
     1
102
RTVSPropertyOp29
 70
     1
102
RTVSPropertyOp30
 70
     1
102
RTVSPropertyOp31
 70
     1
102
RTVSPropertyOp32
 70
     1
102
RTVSPropertyOp33
 70
     1
102
RTVSPropertyOp34
 70
     1
102
RTVSPropertyOp35
 70
     1
102
RTVSPropertyOp36
 70
     1
102
RTVSPropertyOp37
 70
     1
102
RTVSPropertyOp38
 70
     1
102
RTVSPropertyOp39
 70
     1
102
RTVSPropertyOp40
 70
     1
102
RTVSPropertyOp41
 70
     1
102
RTVSPropertyOp42
 70
     1
102
RTVSPropertyOp43
 70
     1
102
RTVSPropertyOp44
 70
     1
102
RTVSPropertyOp45
 70
     1
102
RTVSPropertyOp46
 70
     1
102
RTVSPropertyOp47
 70
     1
102
RTVSPropertyOp48
 70
     1
102
RTVSPropertyOp49
 70
     1
102
RTVSPropertyOp50
 70
     1
102
RTVSPropertyOp51
 70
     0
102
RTVSPropertyOp52
 70
     0
102
RTVSPropertyOp53
 70
     1
102
RTVSPropertyOp54
 70
     1
102
RTVSPropertyOp55
 70
     1
102
RTVSPropertyOp56
 70
     1
102
RTVSPropertyOp57
 70
     1
102
RTVSPost2010Prop28
280
     0
102
RTVSPost2010PropOp28
 70
     1
102
RTVSPost2010Prop29
280
     1
102
RTVSPost2010PropOp29
 70
     1
102
RTVSPost2010Prop30
280
     1
102
RTVSPost2010PropOp30
 70
     1
102
RTVSPost2010Prop31
280
     0
102
RTVSPost2010PropOp31
 70
     1
102
RTVSPost2010Prop32
280
     0
102
RTVSPost2010PropOp32
 70
     1
102
RTVSPost2010Prop33
280
     0
102
RTVSPost2010PropOp33
 70
     1
102
RTVSPost2010Prop34
280
     0
102
RTVSPost2010PropOp34
 70
     1
102
RTVSPost2010Prop35
280
     0
102
RTVSPost2010PropOp35
 70
     1
102
RTVSPost2010Prop36
280
     0
102
RTVSPost2010PropOp36
 70
     1
102
RTVSPost2010Prop37
 90
       50
102
RTVSPost2010PropOp37
 70
     1
102
RTVSPost2010Prop38
140
0.0
102
RTVSPost2010PropOp38
 70
     1
102
RTVSPost2010Prop39
140
1.0
102
RTVSPost2010PropOp39
 70
     1
102
RTVSPost2010Prop40
 90
        0
102
RTVSPost2010PropOp40
 70
     1
102
RTVSPost2010Prop41ColorIndex
 90
       18
102
RTVSPost2010Prop41ColorRGB
 90
        0
102
RTVSPost2010PropOp41
 70
     1
102
RTVSPost2010Prop42
 90
       50
102
RTVSPost2010PropOp42
 70
     1
102
RTVSPost2010Prop43
 90
        3
102
RTVSPost2010PropOp43
 70
     1
102
RTVSPost2010Prop44ColorIndex
 90
        5
102
RTVSPost2010Prop44ColorRGB
 90
      255
102
RTVSPost2010PropOp44
 70
     1
102
RTVSPost2010Prop45
280
     0
102
RTVSPost2010PropOp45
 70
     1
102
RTVSPost2010Prop46
 90
       50
102
RTVSPost2010PropOp46
 70
     1
102
RTVSPost2010Prop47
 90
       50
102
RTVSPost2010PropOp47
 70
     1
102
RTVSPost2010Prop48
 90
       50
102
RTVSPost2010PropOp48
 70
     1
102
RTVSPost2010Prop49
280
     0
102
RTVSPost2010PropOp49
 70
     1
102
RTVSPost2010Prop50
 90
       50
102
RTVSPost2010PropOp50
 70
     1
102
RTVSPost2010Prop51ColorIndex
 90
      256
102
RTVSPost2010Prop51ColorRGB
 90
-16777216
102
RTVSPost2010PropOp51
 70
     0
102
RTVSPost2010Prop52
140
1.0
102
RTVSPost2010PropOp52
 70
     0
102
RTVSPost2010Prop53
 90
        2
102
RTVSPost2010PropOp53
 70
     1
102
RTVSPost2010Prop54
  1
strokes_ogs.tif
102
RTVSPost2010PropOp54
 70
     1
102
RTVSPost2010Prop55
280
     0
102
RTVSPost2010PropOp55
 70
     1
102
RTVSPost2010Prop56
140
1.0
102
RTVSPost2010PropOp56
 70
     1
102
RTVSPost2010Prop57
140
1.0
102
RTVSPost2010PropOp57
 70
     1
  0
XRECORD
  5
1DE
102
{ACAD_REACTORS
330
1DD
102
}
330
1DD
100
AcDbXrecord
280
     1
102
RTVSPropertyOp0
 70
     1
102
RTVSPropertyOp1
 70
     1
102
RTVSPropertyOp2
 70
     1
102
RTVSPropertyOp3
 70
     1
102
RTVSPropertyOp4
 70
     1
102
RTVSPropertyOp5
 70
     1
102
RTVSPropertyOp6
 70
     1
102
RTVSPropertyOp7
 70
     1
102
RTVSPropertyOp8
 70
     1
102
RTVSPropertyOp9
 70
     1
102
RTVSPropertyOp10
 70
     1
102
RTVSPropertyOp11
 70
     1
102
RTVSPropertyOp12
 70
     1
102
RTVSPropertyOp13
 70
     1
102
RTVSPropertyOp14
 70
     1
102
RTVSPropertyOp15
 70
     1
102
RTVSPropertyOp16
 70
     1
102
RTVSPropertyOp17
 70
     1
102
RTVSPropertyOp18
 70
     1
102
RTVSPropertyOp19
 70
     1
102
RTVSPropertyOp20
 70
     1
102
RTVSPropertyOp21
 70
     1
102
RTVSPropertyOp22
 70
     1
102
RTVSPropertyOp23
 70
     1
102
RTVSPropertyOp24
 70
     1
102
RTVSPropertyOp25
 70
     1
102
RTVSPropertyOp26
 70
     1
102
RTVSPropertyOp27
 70
     1
102
RTVSPropertyOp28
 70
     1
102
RTVSPropertyOp29
 70
     1
102
RTVSPropertyOp30
 70
     1
102
RTVSPropertyOp31
 70
     1
102
RTVSPropertyOp32
 70
     1
102
RTVSPropertyOp33
 70
     1
102
RTVSPropertyOp34
 70
     1
102
RTVSPropertyOp35
 70
     1
102
RTVSPropertyOp36
 70
     1
102
RTVSPropertyOp37
 70
     1
102
RTVSPropertyOp38
 70
     1
102
RTVSPropertyOp39
 70
     1
102
RTVSPropertyOp40
 70
     1
102
RTVSPropertyOp41
 70
     1
102
RTVSPropertyOp42
 70
     1
102
RTVSPropertyOp43
 70
     1
102
RTVSPropertyOp44
 70
     1
102
RTVSPropertyOp45
 70
     1
102
RTVSPropertyOp46
 70
     1
102
RTVSPropertyOp47
 70
     1
102
RTVSPropertyOp48
 70
     1
102
RTVSPropertyOp49
 70
     1
102
RTVSPropertyOp50
 70
     1
102
RTVSPropertyOp51
 70
     0
102
RTVSPropertyOp52
 70
     0
102
RTVSPropertyOp53
 70
     1
102
RTVSPropertyOp54
 70
     1
102
RTVSPropertyOp55
 70
     1
102
RTVSPropertyOp56
 70
     1
102
RTVSPropertyOp57
 70
     1
102
RTVSPost2010Prop28
280
     0
102
RTVSPost2010PropOp28
 70
     1
102
RTVSPost2010Prop29
280
     1
102
RTVSPost2010PropOp29
 70
     1
102
RTVSPost2010Prop30
280
     1
102
RTVSPost2010PropOp30
 70
     1
102
RTVSPost2010Prop31
280
     0
102
RTVSPost2010PropOp31
 70
     1
102
RTVSPost2010Prop32
280
     0
102
RTVSPost2010PropOp32
 70
     1
102
RTVSPost2010Prop33
280
     0
102
RTVSPost2010PropOp33
 70
     1
102
RTVSPost2010Prop34
280
     0
102
RTVSPost2010PropOp34
 70
     1
102
RTVSPost2010Prop35
280
     0
102
RTVSPost2010PropOp35
 70
     1
102
RTVSPost2010Prop36
280
     0
102
RTVSPost2010PropOp36
 70
     1
102
RTVSPost2010Prop37
 90
       50
102
RTVSPost2010PropOp37
 70
     1
102
RTVSPost2010Prop38
140
0.0
102
RTVSPost2010PropOp38
 70
     1
102
RTVSPost2010Prop39
140
1.0
102
RTVSPost2010PropOp39
 70
     1
102
RTVSPost2010Prop40
 90
        0
102
RTVSPost2010PropOp40
 70
     1
102
RTVSPost2010Prop41ColorIndex
 90
       18
102
RTVSPost2010Prop41ColorRGB
 90
        0
102
RTVSPost2010PropOp41
 70
     1
102
RTVSPost2010Prop42
 90
       50
102
RTVSPost2010PropOp42
 70
     1
102
RTVSPost2010Prop43
 90
        3
102
RTVSPost2010PropOp43
 70
     1
102
RTVSPost2010Prop44ColorIndex
 90
        5
102
RTVSPost2010Prop44ColorRGB
 90
      255
102
RTVSPost2010PropOp44
 70
     1
102
RTVSPost2010Prop45
280
     0
102
RTVSPost2010PropOp45
 70
     1
102
RTVSPost2010Prop46
 90
       50
102
RTVSPost2010PropOp46
 70
     1
102
RTVSPost2010Prop47
 90
       50
102
RTVSPost2010PropOp47
 70
     1
102
RTVSPost2010Prop48
 90
       50
102
RTVSPost2010PropOp48
 70
     1
102
RTVSPost2010Prop49
280
     0
102
RTVSPost2010PropOp49
 70
     1
102
RTVSPost2010Prop50
 90
       50
102
RTVSPost2010PropOp50
 70
     1
102
RTVSPost2010Prop51ColorIndex
 90
      256
102
RTVSPost2010Prop51ColorRGB
 90
-16777216
102
RTVSPost2010PropOp51
 70
     0
102
RTVSPost2010Prop52
140
1.0
102
RTVSPost2010PropOp52
 70
     0
102
RTVSPost2010Prop53
 90
        2
102
RTVSPost2010PropOp53
 70
     1
102
RTVSPost2010Prop54
  1
strokes_ogs.tif
102
RTVSPost2010PropOp54
 70
     1
102
RTVSPost2010Prop55
280
     0
102
RTVSPost2010PropOp55
 70
     1
102
RTVSPost2010Prop56
140
1.0
102
RTVSPost2010PropOp56
 70
     1
102
RTVSPost2010Prop57
140
1.0
102
RTVSPost2010PropOp57
 70
     1
  0
XRECORD
  5
1D8
102
{ACAD_REACTORS
330
1D7
102
}
330
1D7
100
AcDbXrecord
280
     1
102
RTVSPropertyOp0
 70
     1
102
RTVSPropertyOp1
 70
     1
102
RTVSPropertyOp2
 70
     1
102
RTVSPropertyOp3
 70
     1
102
RTVSPropertyOp4
 70
     1
102
RTVSPropertyOp5
 70
     1
102
RTVSPropertyOp6
 70
     1
102
RTVSPropertyOp7
 70
     1
102
RTVSPropertyOp8
 70
     1
102
RTVSPropertyOp9
 70
     1
102
RTVSPropertyOp10
 70
     1
102
RTVSPropertyOp11
 70
     1
102
RTVSPropertyOp12
 70
     1
102
RTVSPropertyOp13
 70
     1
102
RTVSPropertyOp14
 70
     1
102
RTVSPropertyOp15
 70
     1
102
RTVSPropertyOp16
 70
     1
102
RTVSPropertyOp17
 70
     1
102
RTVSPropertyOp18
 70
     1
102
RTVSPropertyOp19
 70
     1
102
RTVSPropertyOp20
 70
     1
102
RTVSPropertyOp21
 70
     1
102
RTVSPropertyOp22
 70
     1
102
RTVSPropertyOp23
 70
     1
102
RTVSPropertyOp24
 70
     1
102
RTVSPropertyOp25
 70
     1
102
RTVSPropertyOp26
 70
     1
102
RTVSPropertyOp27
 70
     1
102
RTVSPropertyOp28
 70
     1
102
RTVSPropertyOp29
 70
     1
102
RTVSPropertyOp30
 70
     1
102
RTVSPropertyOp31
 70
     1
102
RTVSPropertyOp32
 70
     1
102
RTVSPropertyOp33
 70
     1
102
RTVSPropertyOp34
 70
     1
102
RTVSPropertyOp35
 70
     1
102
RTVSPropertyOp36
 70
     1
102
RTVSPropertyOp37
 70
     1
102
RTVSPropertyOp38
 70
     1
102
RTVSPropertyOp39
 70
     1
102
RTVSPropertyOp40
 70
     1
102
RTVSPropertyOp41
 70
     1
102
RTVSPropertyOp42
 70
     1
102
RTVSPropertyOp43
 70
     1
102
RTVSPropertyOp44
 70
     1
102
RTVSPropertyOp45
 70
     1
102
RTVSPropertyOp46
 70
     1
102
RTVSPropertyOp47
 70
     1
102
RTVSPropertyOp48
 70
     1
102
RTVSPropertyOp49
 70
     1
102
RTVSPropertyOp50
 70
     1
102
RTVSPropertyOp51
 70
     0
102
RTVSPropertyOp52
 70
     0
102
RTVSPropertyOp53
 70
     1
102
RTVSPropertyOp54
 70
     1
102
RTVSPropertyOp55
 70
     1
102
RTVSPropertyOp56
 70
     1
102
RTVSPropertyOp57
 70
     1
102
RTVSPost2010Prop28
280
     0
102
RTVSPost2010PropOp28
 70
     1
102
RTVSPost2010Prop29
280
     1
102
RTVSPost2010PropOp29
 70
     1
102
RTVSPost2010Prop30
280
     1
102
RTVSPost2010PropOp30
 70
     1
102
RTVSPost2010Prop31
280
     0
102
RTVSPost2010PropOp31
 70
     1
102
RTVSPost2010Prop32
280
     0
102
RTVSPost2010PropOp32
 70
     1
102
RTVSPost2010Prop33
280
     0
102
RTVSPost2010PropOp33
 70
     1
102
RTVSPost2010Prop34
280
     0
102
RTVSPost2010PropOp34
 70
     1
102
RTVSPost2010Prop35
280
     0
102
RTVSPost2010PropOp35
 70
     1
102
RTVSPost2010Prop36
280
     0
102
RTVSPost2010PropOp36
 70
     1
102
RTVSPost2010Prop37
 90
       50
102
RTVSPost2010PropOp37
 70
     1
102
RTVSPost2010Prop38
140
0.0
102
RTVSPost2010PropOp38
 70
     1
102
RTVSPost2010Prop39
140
1.0
102
RTVSPost2010PropOp39
 70
     1
102
RTVSPost2010Prop40
 90
        0
102
RTVSPost2010PropOp40
 70
     1
102
RTVSPost2010Prop41ColorIndex
 90
       18
102
RTVSPost2010Prop41ColorRGB
 90
        0
102
RTVSPost2010PropOp41
 70
     1
102
RTVSPost2010Prop42
 90
       50
102
RTVSPost2010PropOp42
 70
     1
102
RTVSPost2010Prop43
 90
        3
102
RTVSPost2010PropOp43
 70
     1
102
RTVSPost2010Prop44ColorIndex
 90
        5
102
RTVSPost2010Prop44ColorRGB
 90
      255
102
RTVSPost2010PropOp44
 70
     1
102
RTVSPost2010Prop45
280
     0
102
RTVSPost2010PropOp45
 70
     1
102
RTVSPost2010Prop46
 90
       50
102
RTVSPost2010PropOp46
 70
     1
102
RTVSPost2010Prop47
 90
       50
102
RTVSPost2010PropOp47
 70
     1
102
RTVSPost2010Prop48
 90
       50
102
RTVSPost2010PropOp48
 70
     1
102
RTVSPost2010Prop49
280
     0
102
RTVSPost2010PropOp49
 70
     1
102
RTVSPost2010Prop50
 90
       50
102
RTVSPost2010PropOp50
 70
     1
102
RTVSPost2010Prop51ColorIndex
 90
      256
102
RTVSPost2010Prop51ColorRGB
 90
-16777216
102
RTVSPost2010PropOp51
 70
     0
102
RTVSPost2010Prop52
140
1.0
102
RTVSPost2010PropOp52
 70
     0
102
RTVSPost2010Prop53
 90
        2
102
RTVSPost2010PropOp53
 70
     1
102
RTVSPost2010Prop54
  1
strokes_ogs.tif
102
RTVSPost2010PropOp54
 70
     1
102
RTVSPost2010Prop55
280
     0
102
RTVSPost2010PropOp55
 70
     1
102
RTVSPost2010Prop56
140
1.0
102
RTVSPost2010PropOp56
 70
     1
102
RTVSPost2010Prop57
140
1.0
102
RTVSPost2010PropOp57
 70
     1
  0
XRECORD
  5
1DA
102
{ACAD_REACTORS
330
1D9
102
}
330
1D9
100
AcDbXrecord
280
     1
102
RTVSPropertyOp0
 70
     1
102
RTVSPropertyOp1
 70
     1
102
RTVSPropertyOp2
 70
     1
102
RTVSPropertyOp3
 70
     1
102
RTVSPropertyOp4
 70
     1
102
RTVSPropertyOp5
 70
     1
102
RTVSPropertyOp6
 70
     1
102
RTVSPropertyOp7
 70
     1
102
RTVSPropertyOp8
 70
     1
102
RTVSPropertyOp9
 70
     1
102
RTVSPropertyOp10
 70
     1
102
RTVSPropertyOp11
 70
     1
102
RTVSPropertyOp12
 70
     1
102
RTVSPropertyOp13
 70
     1
102
RTVSPropertyOp14
 70
     1
102
RTVSPropertyOp15
 70
     1
102
RTVSPropertyOp16
 70
     1
102
RTVSPropertyOp17
 70
     1
102
RTVSPropertyOp18
 70
     1
102
RTVSPropertyOp19
 70
     1
102
RTVSPropertyOp20
 70
     1
102
RTVSPropertyOp21
 70
     1
102
RTVSPropertyOp22
 70
     1
102
RTVSPropertyOp23
 70
     1
102
RTVSPropertyOp24
 70
     1
102
RTVSPropertyOp25
 70
     1
102
RTVSPropertyOp26
 70
     1
102
RTVSPropertyOp27
 70
     1
102
RTVSPropertyOp28
 70
     1
102
RTVSPropertyOp29
 70
     1
102
RTVSPropertyOp30
 70
     1
102
RTVSPropertyOp31
 70
     1
102
RTVSPropertyOp32
 70
     1
102
RTVSPropertyOp33
 70
     1
102
RTVSPropertyOp34
 70
     1
102
RTVSPropertyOp35
 70
     1
102
RTVSPropertyOp36
 70
     1
102
RTVSPropertyOp37
 70
     1
102
RTVSPropertyOp38
 70
     1
102
RTVSPropertyOp39
 70
     1
102
RTVSPropertyOp40
 70
     1
102
RTVSPropertyOp41
 70
     1
102
RTVSPropertyOp42
 70
     1
102
RTVSPropertyOp43
 70
     1
102
RTVSPropertyOp44
 70
     1
102
RTVSPropertyOp45
 70
     1
102
RTVSPropertyOp46
 70
     1
102
RTVSPropertyOp47
 70
     1
102
RTVSPropertyOp48
 70
     1
102
RTVSPropertyOp49
 70
     1
102
RTVSPropertyOp50
 70
     1
102
RTVSPropertyOp51
 70
     0
102
RTVSPropertyOp52
 70
     0
102
RTVSPropertyOp53
 70
     1
102
RTVSPropertyOp54
 70
     1
102
RTVSPropertyOp55
 70
     1
102
RTVSPropertyOp56
 70
     1
102
RTVSPropertyOp57
 70
     1
102
RTVSPost2010Prop28
280
     0
102
RTVSPost2010PropOp28
 70
     1
102
RTVSPost2010Prop29
280
     1
102
RTVSPost2010PropOp29
 70
     1
102
RTVSPost2010Prop30
280
     1
102
RTVSPost2010PropOp30
 70
     1
102
RTVSPost2010Prop31
280
     0
102
RTVSPost2010PropOp31
 70
     1
102
RTVSPost2010Prop32
280
     0
102
RTVSPost2010PropOp32
 70
     1
102
RTVSPost2010Prop33
280
     0
102
RTVSPost2010PropOp33
 70
     1
102
RTVSPost2010Prop34
280
     0
102
RTVSPost2010PropOp34
 70
     1
102
RTVSPost2010Prop35
280
     0
102
RTVSPost2010PropOp35
 70
     1
102
RTVSPost2010Prop36
280
     0
102
RTVSPost2010PropOp36
 70
     1
102
RTVSPost2010Prop37
 90
       50
102
RTVSPost2010PropOp37
 70
     1
102
RTVSPost2010Prop38
140
0.0
102
RTVSPost2010PropOp38
 70
     1
102
RTVSPost2010Prop39
140
1.0
102
RTVSPost2010PropOp39
 70
     1
102
RTVSPost2010Prop40
 90
        0
102
RTVSPost2010PropOp40
 70
     1
102
RTVSPost2010Prop41ColorIndex
 90
       18
102
RTVSPost2010Prop41ColorRGB
 90
        0
102
RTVSPost2010PropOp41
 70
     1
102
RTVSPost2010Prop42
 90
       50
102
RTVSPost2010PropOp42
 70
     1
102
RTVSPost2010Prop43
 90
        3
102
RTVSPost2010PropOp43
 70
     1
102
RTVSPost2010Prop44ColorIndex
 90
        5
102
RTVSPost2010Prop44ColorRGB
 90
      255
102
RTVSPost2010PropOp44
 70
     1
102
RTVSPost2010Prop45
280
     0
102
RTVSPost2010PropOp45
 70
     1
102
RTVSPost2010Prop46
 90
       50
102
RTVSPost2010PropOp46
 70
     1
102
RTVSPost2010Prop47
 90
       50
102
RTVSPost2010PropOp47
 70
     1
102
RTVSPost2010Prop48
 90
       50
102
RTVSPost2010PropOp48
 70
     1
102
RTVSPost2010Prop49
280
     0
102
RTVSPost2010PropOp49
 70
     1
102
RTVSPost2010Prop50
 90
       50
102
RTVSPost2010PropOp50
 70
     1
102
RTVSPost2010Prop51ColorIndex
 90
      256
102
RTVSPost2010Prop51ColorRGB
 90
-16777216
102
RTVSPost2010PropOp51
 70
     0
102
RTVSPost2010Prop52
140
1.0
102
RTVSPost2010PropOp52
 70
     0
102
RTVSPost2010Prop53
 90
        2
102
RTVSPost2010PropOp53
 70
     1
102
RTVSPost2010Prop54
  1
strokes_ogs.tif
102
RTVSPost2010PropOp54
 70
     1
102
RTVSPost2010Prop55
280
     0
102
RTVSPost2010PropOp55
 70
     1
102
RTVSPost2010Prop56
140
1.0
102
RTVSPost2010PropOp56
 70
     1
102
RTVSPost2010Prop57
140
1.0
102
RTVSPost2010PropOp57
 70
     1
  0
XRECORD
  5
1CA
102
{ACAD_REACTORS
330
1C9
102
}
330
1C9
100
AcDbXrecord
280
     1
102
RTVSPropertyOp0
 70
     1
102
RTVSPropertyOp1
 70
     1
102
RTVSPropertyOp2
 70
     1
102
RTVSPropertyOp3
 70
     1
102
RTVSPropertyOp4
 70
     1
102
RTVSPropertyOp5
 70
     1
102
RTVSPropertyOp6
 70
     1
102
RTVSPropertyOp7
 70
     1
102
RTVSPropertyOp8
 70
     1
102
RTVSPropertyOp9
 70
     1
102
RTVSPropertyOp10
 70
     1
102
RTVSPropertyOp11
 70
     1
102
RTVSPropertyOp12
 70
     1
102
RTVSPropertyOp13
 70
     1
102
RTVSPropertyOp14
 70
     1
102
RTVSPropertyOp15
 70
     1
102
RTVSPropertyOp16
 70
     1
102
RTVSPropertyOp17
 70
     1
102
RTVSPropertyOp18
 70
     1
102
RTVSPropertyOp19
 70
     1
102
RTVSPropertyOp20
 70
     1
102
RTVSPropertyOp21
 70
     1
102
RTVSPropertyOp22
 70
     1
102
RTVSPropertyOp23
 70
     1
102
RTVSPropertyOp24
 70
     1
102
RTVSPropertyOp25
 70
     1
102
RTVSPropertyOp26
 70
     1
102
RTVSPropertyOp27
 70
     1
102
RTVSPropertyOp28
 70
     1
102
RTVSPropertyOp29
 70
     1
102
RTVSPropertyOp30
 70
     1
102
RTVSPropertyOp31
 70
     1
102
RTVSPropertyOp32
 70
     1
102
RTVSPropertyOp33
 70
     1
102
RTVSPropertyOp34
 70
     1
102
RTVSPropertyOp35
 70
     1
102
RTVSPropertyOp36
 70
     1
102
RTVSPropertyOp37
 70
     1
102
RTVSPropertyOp38
 70
     1
102
RTVSPropertyOp39
 70
     1
102
RTVSPropertyOp40
 70
     1
102
RTVSPropertyOp41
 70
     1
102
RTVSPropertyOp42
 70
     1
102
RTVSPropertyOp43
 70
     1
102
RTVSPropertyOp44
 70
     1
102
RTVSPropertyOp45
 70
     1
102
RTVSPropertyOp46
 70
     1
102
RTVSPropertyOp47
 70
     1
102
RTVSPropertyOp48
 70
     1
102
RTVSPropertyOp49
 70
     1
102
RTVSPropertyOp50
 70
     1
102
RTVSPropertyOp51
 70
     0
102
RTVSPropertyOp52
 70
     0
102
RTVSPropertyOp53
 70
     1
102
RTVSPropertyOp54
 70
     1
102
RTVSPropertyOp55
 70
     1
102
RTVSPropertyOp56
 70
     1
102
RTVSPropertyOp57
 70
     1
102
RTVSPost2010Prop28
280
     0
102
RTVSPost2010PropOp28
 70
     1
102
RTVSPost2010Prop29
280
     1
102
RTVSPost2010PropOp29
 70
     1
102
RTVSPost2010Prop30
280
     1
102
RTVSPost2010PropOp30
 70
     1
102
RTVSPost2010Prop31
280
     0
102
RTVSPost2010PropOp31
 70
     1
102
RTVSPost2010Prop32
280
     0
102
RTVSPost2010PropOp32
 70
     1
102
RTVSPost2010Prop33
280
     0
102
RTVSPost2010PropOp33
 70
     1
102
RTVSPost2010Prop34
280
     0
102
RTVSPost2010PropOp34
 70
     1
102
RTVSPost2010Prop35
280
     0
102
RTVSPost2010PropOp35
 70
     1
102
RTVSPost2010Prop36
280
     0
102
RTVSPost2010PropOp36
 70
     1
102
RTVSPost2010Prop37
 90
       50
102
RTVSPost2010PropOp37
 70
     1
102
RTVSPost2010Prop38
140
0.0
102
RTVSPost2010PropOp38
 70
     1
102
RTVSPost2010Prop39
140
1.0
102
RTVSPost2010PropOp39
 70
     1
102
RTVSPost2010Prop40
 90
        0
102
RTVSPost2010PropOp40
 70
     1
102
RTVSPost2010Prop41ColorIndex
 90
       18
102
RTVSPost2010Prop41ColorRGB
 90
        0
102
RTVSPost2010PropOp41
 70
     1
102
RTVSPost2010Prop42
 90
       50
102
RTVSPost2010PropOp42
 70
     1
102
RTVSPost2010Prop43
 90
        3
102
RTVSPost2010PropOp43
 70
     1
102
RTVSPost2010Prop44ColorIndex
 90
        5
102
RTVSPost2010Prop44ColorRGB
 90
      255
102
RTVSPost2010PropOp44
 70
     1
102
RTVSPost2010Prop45
280
     0
102
RTVSPost2010PropOp45
 70
     1
102
RTVSPost2010Prop46
 90
       50
102
RTVSPost2010PropOp46
 70
     1
102
RTVSPost2010Prop47
 90
       50
102
RTVSPost2010PropOp47
 70
     1
102
RTVSPost2010Prop48
 90
       50
102
RTVSPost2010PropOp48
 70
     1
102
RTVSPost2010Prop49
280
     0
102
RTVSPost2010PropOp49
 70
     1
102
RTVSPost2010Prop50
 90
       50
102
RTVSPost2010PropOp50
 70
     1
102
RTVSPost2010Prop51ColorIndex
 90
      256
102
RTVSPost2010Prop51ColorRGB
 90
-16777216
102
RTVSPost2010PropOp51
 70
     0
102
RTVSPost2010Prop52
140
1.0
102
RTVSPost2010PropOp52
 70
     0
102
RTVSPost2010Prop53
 90
        2
102
RTVSPost2010PropOp53
 70
     1
102
RTVSPost2010Prop54
  1
strokes_ogs.tif
102
RTVSPost2010PropOp54
 70
     1
102
RTVSPost2010Prop55
280
     0
102
RTVSPost2010PropOp55
 70
     1
102
RTVSPost2010Prop56
140
1.0
102
RTVSPost2010PropOp56
 70
     1
102
RTVSPost2010Prop57
140
1.0
102
RTVSPost2010PropOp57
 70
     1
  0
XRECORD
  5
1BC
102
{ACAD_REACTORS
330
1BB
102
}
330
1BB
100
AcDbXrecord
280
     1
102
RTVSPropertyOp0
 70
     1
102
RTVSPropertyOp1
 70
     1
102
RTVSPropertyOp2
 70
     1
102
RTVSPropertyOp3
 70
     1
102
RTVSPropertyOp4
 70
     1
102
RTVSPropertyOp5
 70
     1
102
RTVSPropertyOp6
 70
     1
102
RTVSPropertyOp7
 70
     1
102
RTVSPropertyOp8
 70
     1
102
RTVSPropertyOp9
 70
     1
102
RTVSPropertyOp10
 70
     1
102
RTVSPropertyOp11
 70
     1
102
RTVSPropertyOp12
 70
     1
102
RTVSPropertyOp13
 70
     1
102
RTVSPropertyOp14
 70
     1
102
RTVSPropertyOp15
 70
     1
102
RTVSPropertyOp16
 70
     1
102
RTVSPropertyOp17
 70
     1
102
RTVSPropertyOp18
 70
     1
102
RTVSPropertyOp19
 70
     1
102
RTVSPropertyOp20
 70
     1
102
RTVSPropertyOp21
 70
     1
102
RTVSPropertyOp22
 70
     1
102
RTVSPropertyOp23
 70
     1
102
RTVSPropertyOp24
 70
     1
102
RTVSPropertyOp25
 70
     1
102
RTVSPropertyOp26
 70
     1
102
RTVSPropertyOp27
 70
     1
102
RTVSPropertyOp28
 70
     1
102
RTVSPropertyOp29
 70
     1
102
RTVSPropertyOp30
 70
     1
102
RTVSPropertyOp31
 70
     1
102
RTVSPropertyOp32
 70
     1
102
RTVSPropertyOp33
 70
     1
102
RTVSPropertyOp34
 70
     1
102
RTVSPropertyOp35
 70
     1
102
RTVSPropertyOp36
 70
     1
102
RTVSPropertyOp37
 70
     1
102
RTVSPropertyOp38
 70
     1
102
RTVSPropertyOp39
 70
     1
102
RTVSPropertyOp40
 70
     1
102
RTVSPropertyOp41
 70
     1
102
RTVSPropertyOp42
 70
     1
102
RTVSPropertyOp43
 70
     1
102
RTVSPropertyOp44
 70
     1
102
RTVSPropertyOp45
 70
     1
102
RTVSPropertyOp46
 70
     1
102
RTVSPropertyOp47
 70
     1
102
RTVSPropertyOp48
 70
     1
102
RTVSPropertyOp49
 70
     1
102
RTVSPropertyOp50
 70
     1
102
RTVSPropertyOp51
 70
     0
102
RTVSPropertyOp52
 70
     0
102
RTVSPropertyOp53
 70
     1
102
RTVSPropertyOp54
 70
     1
102
RTVSPropertyOp55
 70
     1
102
RTVSPropertyOp56
 70
     1
102
RTVSPropertyOp57
 70
     1
102
RTVSPost2010Prop28
280
     0
102
RTVSPost2010PropOp28
 70
     1
102
RTVSPost2010Prop29
280
     1
102
RTVSPost2010PropOp29
 70
     1
102
RTVSPost2010Prop30
280
     1
102
RTVSPost2010PropOp30
 70
     1
102
RTVSPost2010Prop31
280
     0
102
RTVSPost2010PropOp31
 70
     1
102
RTVSPost2010Prop32
280
     0
102
RTVSPost2010PropOp32
 70
     1
102
RTVSPost2010Prop33
280
     0
102
RTVSPost2010PropOp33
 70
     1
102
RTVSPost2010Prop34
280
     0
102
RTVSPost2010PropOp34
 70
     1
102
RTVSPost2010Prop35
280
     0
102
RTVSPost2010PropOp35
 70
     1
102
RTVSPost2010Prop36
280
     0
102
RTVSPost2010PropOp36
 70
     1
102
RTVSPost2010Prop37
 90
       50
102
RTVSPost2010PropOp37
 70
     1
102
RTVSPost2010Prop38
140
0.0
102
RTVSPost2010PropOp38
 70
     1
102
RTVSPost2010Prop39
140
1.0
102
RTVSPost2010PropOp39
 70
     1
102
RTVSPost2010Prop40
 90
        0
102
RTVSPost2010PropOp40
 70
     1
102
RTVSPost2010Prop41ColorIndex
 90
       18
102
RTVSPost2010Prop41ColorRGB
 90
        0
102
RTVSPost2010PropOp41
 70
     1
102
RTVSPost2010Prop42
 90
       50
102
RTVSPost2010PropOp42
 70
     1
102
RTVSPost2010Prop43
 90
        3
102
RTVSPost2010PropOp43
 70
     1
102
RTVSPost2010Prop44ColorIndex
 90
        5
102
RTVSPost2010Prop44ColorRGB
 90
      255
102
RTVSPost2010PropOp44
 70
     1
102
RTVSPost2010Prop45
280
     0
102
RTVSPost2010PropOp45
 70
     1
102
RTVSPost2010Prop46
 90
       50
102
RTVSPost2010PropOp46
 70
     1
102
RTVSPost2010Prop47
 90
       50
102
RTVSPost2010PropOp47
 70
     1
102
RTVSPost2010Prop48
 90
       50
102
RTVSPost2010PropOp48
 70
     1
102
RTVSPost2010Prop49
280
     0
102
RTVSPost2010PropOp49
 70
     1
102
RTVSPost2010Prop50
 90
       50
102
RTVSPost2010PropOp50
 70
     1
102
RTVSPost2010Prop51ColorIndex
 90
      256
102
RTVSPost2010Prop51ColorRGB
 90
-16777216
102
RTVSPost2010PropOp51
 70
     0
102
RTVSPost2010Prop52
140
1.0
102
RTVSPost2010PropOp52
 70
     0
102
RTVSPost2010Prop53
 90
        2
102
RTVSPost2010PropOp53
 70
     1
102
RTVSPost2010Prop54
  1
strokes_ogs.tif
102
RTVSPost2010PropOp54
 70
     1
102
RTVSPost2010Prop55
280
     0
102
RTVSPost2010PropOp55
 70
     1
102
RTVSPost2010Prop56
140
1.0
102
RTVSPost2010PropOp56
 70
     1
102
RTVSPost2010Prop57
140
1.0
102
RTVSPost2010PropOp57
 70
     1
  0
XRECORD
  5
1DC
102
{ACAD_REACTORS
330
1DB
102
}
330
1DB
100
AcDbXrecord
280
     1
102
RTVSPropertyOp0
 70
     1
102
RTVSPropertyOp1
 70
     1
102
RTVSPropertyOp2
 70
     1
102
RTVSPropertyOp3
 70
     1
102
RTVSPropertyOp4
 70
     1
102
RTVSPropertyOp5
 70
     1
102
RTVSPropertyOp6
 70
     1
102
RTVSPropertyOp7
 70
     1
102
RTVSPropertyOp8
 70
     1
102
RTVSPropertyOp9
 70
     1
102
RTVSPropertyOp10
 70
     1
102
RTVSPropertyOp11
 70
     1
102
RTVSPropertyOp12
 70
     1
102
RTVSPropertyOp13
 70
     1
102
RTVSPropertyOp14
 70
     1
102
RTVSPropertyOp15
 70
     1
102
RTVSPropertyOp16
 70
     1
102
RTVSPropertyOp17
 70
     1
102
RTVSPropertyOp18
 70
     1
102
RTVSPropertyOp19
 70
     1
102
RTVSPropertyOp20
 70
     1
102
RTVSPropertyOp21
 70
     1
102
RTVSPropertyOp22
 70
     1
102
RTVSPropertyOp23
 70
     1
102
RTVSPropertyOp24
 70
     1
102
RTVSPropertyOp25
 70
     1
102
RTVSPropertyOp26
 70
     1
102
RTVSPropertyOp27
 70
     1
102
RTVSPropertyOp28
 70
     1
102
RTVSPropertyOp29
 70
     1
102
RTVSPropertyOp30
 70
     1
102
RTVSPropertyOp31
 70
     1
102
RTVSPropertyOp32
 70
     1
102
RTVSPropertyOp33
 70
     1
102
RTVSPropertyOp34
 70
     1
102
RTVSPropertyOp35
 70
     1
102
RTVSPropertyOp36
 70
     1
102
RTVSPropertyOp37
 70
     1
102
RTVSPropertyOp38
 70
     1
102
RTVSPropertyOp39
 70
     1
102
RTVSPropertyOp40
 70
     1
102
RTVSPropertyOp41
 70
     1
102
RTVSPropertyOp42
 70
     1
102
RTVSPropertyOp43
 70
     1
102
RTVSPropertyOp44
 70
     1
102
RTVSPropertyOp45
 70
     1
102
RTVSPropertyOp46
 70
     1
102
RTVSPropertyOp47
 70
     1
102
RTVSPropertyOp48
 70
     1
102
RTVSPropertyOp49
 70
     1
102
RTVSPropertyOp50
 70
     1
102
RTVSPropertyOp51
 70
     0
102
RTVSPropertyOp52
 70
     0
102
RTVSPropertyOp53
 70
     1
102
RTVSPropertyOp54
 70
     1
102
RTVSPropertyOp55
 70
     1
102
RTVSPropertyOp56
 70
     1
102
RTVSPropertyOp57
 70
     1
102
RTVSPost2010Prop28
280
     0
102
RTVSPost2010PropOp28
 70
     1
102
RTVSPost2010Prop29
280
     1
102
RTVSPost2010PropOp29
 70
     1
102
RTVSPost2010Prop30
280
     1
102
RTVSPost2010PropOp30
 70
     1
102
RTVSPost2010Prop31
280
     0
102
RTVSPost2010PropOp31
 70
     1
102
RTVSPost2010Prop32
280
     0
102
RTVSPost2010PropOp32
 70
     1
102
RTVSPost2010Prop33
280
     0
102
RTVSPost2010PropOp33
 70
     1
102
RTVSPost2010Prop34
280
     0
102
RTVSPost2010PropOp34
 70
     1
102
RTVSPost2010Prop35
280
     0
102
RTVSPost2010PropOp35
 70
     1
102
RTVSPost2010Prop36
280
     0
102
RTVSPost2010PropOp36
 70
     1
102
RTVSPost2010Prop37
 90
       50
102
RTVSPost2010PropOp37
 70
     1
102
RTVSPost2010Prop38
140
0.0
102
RTVSPost2010PropOp38
 70
     1
102
RTVSPost2010Prop39
140
1.0
102
RTVSPost2010PropOp39
 70
     1
102
RTVSPost2010Prop40
 90
        0
102
RTVSPost2010PropOp40
 70
     1
102
RTVSPost2010Prop41ColorIndex
 90
       18
102
RTVSPost2010Prop41ColorRGB
 90
        0
102
RTVSPost2010PropOp41
 70
     1
102
RTVSPost2010Prop42
 90
       50
102
RTVSPost2010PropOp42
 70
     1
102
RTVSPost2010Prop43
 90
        3
102
RTVSPost2010PropOp43
 70
     1
102
RTVSPost2010Prop44ColorIndex
 90
        5
102
RTVSPost2010Prop44ColorRGB
 90
      255
102
RTVSPost2010PropOp44
 70
     1
102
RTVSPost2010Prop45
280
     0
102
RTVSPost2010PropOp45
 70
     1
102
RTVSPost2010Prop46
 90
       50
102
RTVSPost2010PropOp46
 70
     1
102
RTVSPost2010Prop47
 90
       50
102
RTVSPost2010PropOp47
 70
     1
102
RTVSPost2010Prop48
 90
       50
102
RTVSPost2010PropOp48
 70
     1
102
RTVSPost2010Prop49
280
     0
102
RTVSPost2010PropOp49
 70
     1
102
RTVSPost2010Prop50
 90
       50
102
RTVSPost2010PropOp50
 70
     1
102
RTVSPost2010Prop51ColorIndex
 90
      256
102
RTVSPost2010Prop51ColorRGB
 90
-16777216
102
RTVSPost2010PropOp51
 70
     0
102
RTVSPost2010Prop52
140
1.0
102
RTVSPost2010PropOp52
 70
     0
102
RTVSPost2010Prop53
 90
        2
102
RTVSPost2010PropOp53
 70
     1
102
RTVSPost2010Prop54
  1
strokes_ogs.tif
102
RTVSPost2010PropOp54
 70
     1
102
RTVSPost2010Prop55
280
     0
102
RTVSPost2010PropOp55
 70
     1
102
RTVSPost2010Prop56
140
1.0
102
RTVSPost2010PropOp56
 70
     1
102
RTVSPost2010Prop57
140
1.0
102
RTVSPost2010PropOp57
 70
     1
  0
ENDSEC
  0
EOF
